Oops, an error
Loading. Please wait.

Ghost Ship Of Cannibal Rats bass

version 1
version 1

Whole song

  • Tabbed by ear. Errors excepted. Listen to the song to get a feel for the rhythm.

Interactive

980 views 24 this week
1 commentread comment
1 2 3 4 5
x 3
add to favorites
×
Save as Personal and add changes to this tab that will be seen only by you. Learn more ›
×
You can save this tab as Personal to edit and correct it or add notes. All changes will be seen only by you. Learn more »
launch autoscroll
font size
0
reset
guitar tuner
edit
Autoscroll
slow
fast
+/-
esc
set tempo
stop
About this tab version
Tabbed by ear. Errors excepted. Listen to the song to get a feel for the rhythm. Was this info helpful? Yes No
Tabbed by ear. Errors excepted.
Listen to the song to get a feel for the rhythm (it's pretty hard though...)

[Intro] (0:12)
G|------------------|------------------|------------------|------------------|
D|------------------|------------------|------------------|--------442-------|
A|------------------|------------------|------------------|-----------40-----|
D|-444-44-44444-4-4-|--44-44-44444-4-4-|--44-44-44444-4-4-|--44-44-------4-4-|

[Verse 1] (0:22)
G|------------------|------------------|------------------|------------------|
D|------------------|------------------|------------------|------------------|
A|------------------|------------------|------------------|------------------|
D|-44-44-444-4-4-4--|--44-44-444-4-4-4-|--44-44-444-4-4-4-|--44-44-444-4/777-|

G|------------------|------------------|------------------|------------------|
D|------------------|------------------|------------------|------------------|
A|------------------|------------------|------------------|------------------|
D|-0~---0~----------|-0~---0~----4/777-|-0~---0~----------|-0~---0~----4/777-|

[Verse 2] (0:44)
G|------------------|------------------|------------------|------------------|
D|------------------|------------------|------------------|------------------|
A|------------------|------------------|------------------|------------------|
D|-44-44-444-4-4-4--|--44-44-444-4-4-4-|--44-44-444-4-4-4-|--44-44-444-4/777-|

G|------------------|------------------|------------------|------------------|
D|------------------|------------------|------------------|------------------|
A|------------------|------------------|-5~---5~----------|-5~---5~----------|
D|-0~---0~----------|-0~---0~----4/777-|---------------7--|------------------|

[Chorus 1] (1:06)
                                                                             --\
G|------------------|------------------|------------------|------------------| |
D|------------------|------------------|------------------|------------------| |
A|------------------|------------7775--|------------------|-22222202-002420--| | 2X
D|-4444-444-444444--|-7777-777-77------|-000-000-000000---|------------------| |
                                                                             --/

[Interlude 1] (1:28)
G|------------------|------------------|
D|------------------|--------442-------|
A|------------------|-----------40-----|
D|-444-44-44444-4-4-|--44-44-------4-4-|

[Verse 3] (1:33)
G|------------------|------------------|------------------|------------------|
D|------------------|------------------|------------------|------------------|
A|------------------|------------------|------------------|------------------|
D|-44-44-444-4-4-4--|--44-44-444-4-4-4-|--44-44-444-4-4-4-|--44-44-444-4/777-|

G|------------------|------------------|------------------|------------------|
D|------------------|------------------|------------------|------------------|
A|------------------|------------------|-5~---5~----------|-5~---------------|
D|-0~---0~----------|-0~---0~----4/777-|---------7--------|------------------|

[Chorus 2] (1:56)
                                                                             --\
G|------------------|------------------|------------------|------------------| |
D|------------------|------------------|------------------|------------------| |
A|------------------|------------7775--|------------------|-2222202-002420---| | 2X
D|-4444-444-444444--|-7777-777-77------|-000-000-000000---|------------------| |
                                                                             --/
 Second time substitute last bar with this one:
(I know only the last note was left out but that's important!)

G|------------------|
D|------------------|
A|-2222202-00242----|
D|------------------|

[Guitar Solo] (2:18)
G|---------------------.|----------------------|------------------|------------------|
D|-----------------222--|-------------222-4466-|------------------|------------------|
A|-----000-222-444------|-000-222-444----------|-555-55-55555-555-|-222-22-22222-222-|
D|-444------------------|----------------------|------------------|------------------|

G|----------------------|----------------------|------------------|------------------|
D|-----------------22---|-------------222-4466-|------------------|------------------|
A|-----000-222-444---42-|-000-222-444----------|------------------|-222222022002420--|
D|-444------------------|----------------------|-000-00-00000-000-|------------------|

[Interlude 2] (2:39)
G|------------------|------------------|
D|------------------|--------442-------|
A|------------------|-----------4------| <-- full stop!
D|-444-44-44444-4-4-|--44-44-----------|

[Chorus 3] (2:44)
                                                                             --\
G|------------------|------------------|------------------|------------------| |
D|------------------|------------------|------------------|------------------| |
A|------------------|------------7775--|------------------|-2222202-002420---| | 2X
D|-4444-444-444444--|-7777-777-77------|-000-000-000000---|------------------| |
                                                                             --/
G|------------------|------------------|------------------|------------------|
D|------------------|------------------|------------------|------------------|
A|------------------|---------44447777-|-5555555-555555---|-2222202-002420---|
D|-4444666677774444-|-66667777---------|------------------|------------------|

G|------------------|------------------|------------------|------------------|
D|------------------|------------------|------------------|------------------|
A|------------------|---------44447777-|------------------|-2222202-00242----|
D|-4444666677774444-|-66667777---------|-0000000-000000---|------------------|

[Outro] (3:28)
G|------------------|--------------------|
D|------------------|--------442-----444-|
A|------------------|-----------40-------|
D|-444-44-44444-4-4-|--44-44-------------|


************************************

| /   Slide up
| \   Slide down
| ~   Let ring

************************************
Suggest correction
Creating personal tab
Creating personal tab
You can edit any tab online and save it as your Personal.

You can edit, replace or remove any tab part or add personal notes – all changes will be seen only by you.

Personal tabs can be accessed anytime from any device, even offline.
Learn more »
Give kudos to tab author, rate the tab!
1 2 3 4 5
comments
print report bad tab
1 comment total.
0 reply
markushein03 126 Feb 11, 2017 02:41 PM

thanks!!!!!!!!!
more excellent bass tabs from this album pls ;)

guest
You may want to rate the tab now too:
select rating
Wanna post a correction for this tab? Suggest correction