Oops, an error
Loading. Please wait.

Ghost Ship Of Cannibal Rats tab

version 1
version 1

Whole song

Interactive

6,244 views 123 this week
7 commentsread comments
1 2 3 4 5
x 5
add to favorites
×
Save as Personal and add changes to this tab that will be seen only by you. Learn more ›
×
You can save this tab as Personal to edit and correct it or add notes. All changes will be seen only by you. Learn more »
launch autoscroll
font size
0
reset
how to read this tab
guitar tuner
edit
Autoscroll
slow
fast
+/-
esc
set tempo
stop
Billy Talent - Ghost Ship Of Cannibal Rats


Guitar-Cover: https://www.youtube.com/watch?v=XtHYi_QyvN8


[Intro]                                                                                        
                              (6x)                                 
e|----------------------------------|
B|-7--------------------------------|
G|-6-----------------4---------6----|
D|---4-4-4---4-4---4---4-7-4-4---4--|
A|---4-4-4-6-4-4-7-4---4---4-4---4--|
D|---4-4-4---4-4---4---4---4-4---4--|



[Verse]
                              (4x)
e|----------------------------------|
B|-7--------------------------------|
G|-6-----------------4---------6----|
D|---4-4-4---4-4---4---4-7-4-4---4--|
A|---4-4-4-6-4-4-7-4---4---4-4---4--|
D|---4-4-4---4-4---4---4---4-4---4--|

e|-------------------------------------------------------------------------------------|
B|-7--7-7--7--7--7-------------------------7--7-7--7--7--7-----------------------------|
G|-x--x-x--6--6--6-----------------7-7-7---x--x-x--6--6--6-----------------7-7-7-------|
D|-7--7-7--7--7--7--6--6-7-6-4--4--7-7-7---7--7-7--7--7--7--6--6-7-6-4--4--7-7-7-------|
A|-5--5-5--5--5--5-----------------5-5-5---5--5-5--5--5--5-----------------5-5-5-------|
D|-------------------------------------------------------------------------------------|

                               (4x)
e|----------------------------------|
B|-7--------------------------------|
G|-6-----------------4---------6----|
D|---4-4-4---4-4---4---4-7-4-4---4--|
A|---4-4-4-6-4-4-7-4---4---4-4---4--|
D|---4-4-4---4-4---4---4---4-4---4--|

e|--------------------------------------------------------------------------|
B|-7--7-7--7--7--7-------------------------7--7-7--7--7--7------------------|
G|-x--x-x--6--6--6-----------------7-7-7---x--x-x--6--6--6------------------|
D|-7--7-7--7--7--7--6--6-7-6-4--4--7-7-7---7--7-7--7--7--7--6--6-7-6-4------|
A|-5--5-5--5--5--5-----------------5-5-5---5--5-5--5--5--5------------------|
D|--------------------------------------------------------------------------|



[Chorus]

e|----------------------------------------------------------------------...|
B|-7-7-7-7-7-7-7-7-7-7-7-7-7-7-7-7--7-7-7-7-7-7-7-7-7-7-7-7-7-7-7-7-----...|
G|-6-6-6-6-6-6-6-6-x-x-x-x-x-x-x-x--7-7-7-7-7-7-7-7-7-7-7-7-7-7-7-7-----...|
D|-4-4-4-4-4-4-4-4-6-6-6-6-7-7-7-7--5-5-5-5-5-5-5-5-6-6-6-6-7-7-7-7-----...|
A|-4-4-4-4-4-4-4-4-4-4-4-4-4-4-4-4--5-5-5-5-5-5-5-5-5-5-5-5-5-5-5-5-----...|
D|-4-4-4-4-4-4-4-4-4-4-4-4-4-4-4-4--------------------------------------...|
                                                                                     (2x)
e|...---------------------------------------------------------------|
B|...--7-7-7-7-7-7-7-7-7-7-7-7-7-7--3-3-3-3-3-3-2-2-2-2-2-2-2-2-----|
G|...--x-x-x-x-x-x-6-6-6-6-6-6-6-6--4-4-4-4-4-4-4-4-4-4-4-4-4-4-----|
D|...--7-7-7-7-7-7-7-7-7-7-7-7-7-7--4-4-4-4-4-4-4-4-4-4-4-4-4-4-----|
A|...--5-5-5-5-5-5-5-5-5-5-5-5-5-5--2-2-2-2-2-2-2-2-2-2-2-2-2-2-----|
D|...---------------------------------------------------------------|


[Post-Chorus]
                               (2x)
e|----------------------------------|
B|-7--------------------------------|
G|-6-----------------4---------6----|
D|---4-4-4---4-4---4---4-7-4-4---4--|
A|---4-4-4-6-4-4-7-4---4---4-4---4--|
D|---4-4-4---4-4---4---4---4-4---4--|



[Verse]
  
                       (Some Special-effects from Ian...)                             

e|-------------------------------------------------------------------------|
B|-7--7-7--7--7--7-------------------------7--7-7--7--7--7-----------------|
G|-x--x-x--6--6--6-----------------7-7-7---x--x-x--6--6--6-----------------|
D|-7--7-7--7--7--7--6--6-7-6-4--4--7-7-7---7--7-7--7--7--7--6--6-7-6-4-----|
A|-5--5-5--5--5--5-----------------5-5-5---5--5-5--5--5--5-----------------|
D|-------------------------------------------------------------------------|



[Chorus]

e|----------------------------------------------------------------------...|
B|-7-7-7-7-7-7-7-7-7-7-7-7-7-7-7-7--7-7-7-7-7-7-7-7-7-7-7-7-7-7-7-7-----...|
G|-6-6-6-6-6-6-6-6-x-x-x-x-x-x-x-x--7-7-7-7-7-7-7-7-7-7-7-7-7-7-7-7-----...|
D|-4-4-4-4-4-4-4-4-6-6-6-6-7-7-7-7--5-5-5-5-5-5-5-5-6-6-6-6-7-7-7-7-----...|
A|-4-4-4-4-4-4-4-4-4-4-4-4-4-4-4-4--5-5-5-5-5-5-5-5-5-5-5-5-5-5-5-5-----...|
D|-4-4-4-4-4-4-4-4-4-4-4-4-4-4-4-4--------------------------------------...|
                                                                                     (2x)
e|...---------------------------------------------------------------|
B|...--7-7-7-7-7-7-7-7-7-7-7-7-7-7--3-3-3-3-3-3-2-2-2-2-2-2-2-2-----|
G|...--x-x-x-x-x-x-6-6-6-6-6-6-6-6--4-4-4-4-4-4-4-4-4-4-4-4-4-4-----|
D|...--7-7-7-7-7-7-7-7-7-7-7-7-7-7--4-4-4-4-4-4-4-4-4-4-4-4-4-4-----|
A|...--5-5-5-5-5-5-5-5-5-5-5-5-5-5--2-2-2-2-2-2-2-2-2-2-2-2-2-2-----|
D|...---------------------------------------------------------------|


[Solo]

e|-----4-----5-----7-----5-----4------4-----5-----7-----5-----4-----...|
B|-2-0---4-0---5-0---5-0---4-0----2-0---4-0---5-0---5-0---4-0-------...|
G|------------------------------------------------------------------...|
D|------------------------------------------------------------------...|
A|------------------------------------------------------------------...|            (2x)
D|------------------------------------------------------------------...|                   
                                                                                                          
e|...-------12-------12-------9-------12-------12--------12-------12-------9-------12-------12-----|
B|...----10-------10-------10------10-------10--------10-------10-------10------10-------10--------|
G|...-11-------11-------11------11-------11--------11-------11-------11------11-------11-----------|
D|...----------------------------------------------------------------------------------------------|
A|...----------------------------------------------------------------------------------------------|
D|...----------------------------------------------------------------------------------------------|



[After Solo]

e|--------------------------------------------------------5~----|
B|-7-------------------------------7----------------------7~----|
G|-6-----------------4---------6---6-----------------4----------|
D|---4-4-4---4-4---4---4-7-4-4---4---4-4-4---4-4---4---4--------|
A|---4-4-4-6-4-4-7-4---4---4-4---4---4-4-4-6-4-4-7-4---4--------|
D|---4-4-4---4-4---4---4---4-4---4---4-4-4---4-4---4---4--------|



[Chorus]

e|----------------------------------------------------------------------...|
B|-7-7-7-7-7-7-7-7-7-7-7-7-7-7-7-7--7-7-7-7-7-7-7-7-7-7-7-7-7-7-7-7-----...|
G|-6-6-6-6-6-6-6-6-x-x-x-x-x-x-x-x--7-7-7-7-7-7-7-7-7-7-7-7-7-7-7-7-----...|
D|-4-4-4-4-4-4-4-4-6-6-6-6-7-7-7-7--5-5-5-5-5-5-5-5-6-6-6-6-7-7-7-7-----...|
A|-4-4-4-4-4-4-4-4-4-4-4-4-4-4-4-4--5-5-5-5-5-5-5-5-5-5-5-5-5-5-5-5-----...|
D|-4-4-4-4-4-4-4-4-4-4-4-4-4-4-4-4--------------------------------------...|
                                                                                     (2x)
e|...---------------------------------------------------------------|
B|...--7-7-7-7-7-7-7-7-7-7-7-7-7-7--3-3-3-3-3-3-2-2-2-2-2-2-2-2-----|
G|...--x-x-x-x-x-x-6-6-6-6-6-6-6-6--4-4-4-4-4-4-4-4-4-4-4-4-4-4-----|
D|...--7-7-7-7-7-7-7-7-7-7-7-7-7-7--4-4-4-4-4-4-4-4-4-4-4-4-4-4-----|
A|...--5-5-5-5-5-5-5-5-5-5-5-5-5-5--2-2-2-2-2-2-2-2-2-2-2-2-2-2-----|
D|...---------------------------------------------------------------|



[Outro]

e|-----4-----5-----7-----5-----4------4-----5-----7-----5-----4-----...|
B|-2-0---4-0---5-0---5-0---4-0----2-0---4-0---5-0---5-0---4-0-------...|
G|------------------------------------------------------------------...|
D|------------------------------------------------------------------...|
A|------------------------------------------------------------------...|            (2x)
D|------------------------------------------------------------------...|                   
                                                                                                          
e|...-------12-------12-------9-------12-------12--------12-------12-------9-------12-------12-----|
B|...----10-------10-------10------10-------10--------10-------10-------10------10-------10--------|
G|...-11-------11-------11------11-------11--------11-------11-------11------11-------11-----------|
D|...----------------------------------------------------------------------------------------------|
A|...----------------------------------------------------------------------------------------------|
D|...----------------------------------------------------------------------------------------------|



e|-------------------------------------------------------------------|
B|-7-------------------------------7-----------------------7-7-7-7---|
G|-6-----------------4---------6---6-----------------4-----6-6-6-6---|
D|---4-4-4---4-4---4---4-7-4-4---4---4-4-4---4-4---4---4-7-4-4-4-4---|
A|---4-4-4-6-4-4-7-4---4---4-4---4---4-4-4-6-4-4-7-4---4---4-4-4-4---|
D|---4-4-4---4-4---4---4---4-4---4---4-4-4---4-4---4---4---4-4-4-4---|



Have Fun ;-)
made by BILLYacbTALENT (YouTube)

            
            
Suggest correction
Creating personal tab
Creating personal tab
You can edit any tab online and save it as your Personal.

You can edit, replace or remove any tab part or add personal notes – all changes will be seen only by you.

Personal tabs can be accessed anytime from any device, even offline.
Learn more »
comments
print report bad tab
7 comments total. Showing first comments.
0 reply
mitchell.assen 10 Jul 13, 2016 11:13 AM

I f***ing love you.

0 reply
markushein03 126 Jul 15, 2016 11:48 AM

that was fast and very nice

0 reply
zzac1234 10 Jul 24, 2016 02:34 AM

This is fantastic, man! Any chance we can get tabs for The Crutch soon?

guest
You may want to rate the tab now too:
select rating
Wanna post a correction for this tab? Suggest correction