Oops, an error
Loading. Please wait.

Half Past Dead tab

version 1
version 1

Whole song

Interactive

751 views 6 this week
3 commentsread comments
1 2 3 4 5
3 more votes to show rating
add to favorites
×
Save as Personal and add changes to this tab that will be seen only by you. Learn more ›
×
You can save this tab as Personal to edit and correct it or add notes. All changes will be seen only by you. Learn more »
launch autoscroll
font size
0
reset
how to read this tab
guitar tuner
edit
Autoscroll
slow
fast
+/-
esc
set tempo
stop
Billy Talent - Half Past Dead


Guitar-Cover: https://www.youtube.com/watch?v=lq7NBC9492I



[Intro]
                              (6x)
e|-3--3-3-3-3-------------2--------|
B|-3--3-3-3-3-----------3--3-------|
G|-0--0-0-0-0----------------------|
D|-2--2-2-2-2-x--------------------|
A|-x--x-x-x-x-x-------0------------|
D|-2--2-2-2-2-x-4-5-6--------------|




[Verse]

e|--------------------------------------------------|
B|--------------------------------------------------|
G|--2--2-2------2--2-2------2--2-2------2--2-2------|
D|--2--2-2------2--2-2------2--2-2------2--2-2------|
A|--0--0-0---2--0--0-0------0--0-0---2--0--0-0------|
D|---------5-----------5-2---------5-----------5-2--|


                              (2x)
e|-3--3-3-3-3-------------2--------|
B|-3--3-3-3-3-----------3--3-------|
G|-0--0-0-0-0----------------------|
D|-2--2-2-2-2-x--------------------|
A|-x--x-x-x-x-x-------0------------|
D|-2--2-2-2-2-x-4-5-6--------------|



e|--------------------------------------------------|
B|--------------------------------------------------|
G|--2--2-2------2--2-2------2--2-2------2--2-2------|
D|--2--2-2------2--2-2------2--2-2------2--2-2------|
A|--0--0-0---2--0--0-0------0--0-0---2--0--0-0------|
D|---------5-----------5-2---------5-----------5-2--|


                              (2x)
e|-3--3-3-3-3-------------2--------|
B|-3--3-3-3-3-----------3--3-------|
G|-0--0-0-0-0----------------------|
D|-2--2-2-2-2-x--------------------|
A|-x--x-x-x-x-x-------0------------|
D|-2--2-2-2-2-x-4-5-6--------------|




[Pre-Chorus]

e|---------------------------------------------|
B|---------------------------------------------|
G|--------------------------2------------------|
D|-x-4-4--2--0--2--5--2-0---2----5--0--2-------|
A|-x-2-2------------------0-0----5--0--2-------|
D|-------------------------------5--0--2-------|


e|-3--3-3-3-3-------------2----3--3-3-3-3--3-3-----|
B|-3--3-3-3-3-----------3--3---3--3-3-3-3--3-3-----|
G|-0--0-0-0-0------------------0--0-0-0-0--0-0-----|
D|-2--2-2-2-2-x----------------3--3-3-3-3--3-3-----|
A|-x--x-x-x-x-x-------0--------x--x-x-x-x--x-x-----|
D|-2--2-2-2-2-x-4-5-6----------2--2-2-2-2--2-2-----|




[Chorus]

e|--------------------------------------------------------------------------------------------------------|
B|--------------------------------------------------------------------------------------------------------|
G|--------------------------------------------------------------------------------------------------------|
D|-7-9--7-9-7--9-7-9--9-9--5-7--5-7--5------0-2--2-2--0-2--0-2--0--2--0--5--5-5--5-7--5-7--8-7-5-2--2-2---|
A|-5-7--5-7-5--7-7-9--9-9--5-7--5-7--5------0-2--2-2--0-2--0-2--0--2--0--5--5-5--5-7--5-7--8-7-5-2--2-2---|
D|---------------7-9--9-9--5-7--5-7--5--8\--0-2--2-2--0-2--0-2--0--2--0--5--5-5--5-7--5-7--8-7-5-2--2-2---|

e|-----------------------------------------------------------------------------------------------------------|
B|-----------------------------------------------------------------------------------------------------------|
G|-----------------------------------------------------------------------------------------------------------|
D|-7-9--7-9-7--9-7-9--9-9--5-7--5-7--5------0-2--2-2--0-2--0-2--0--2--0--5--5-5--5-7--5-7--8-7-5-2--2-2--0-2-|
A|-5-7--5-7-5--7-7-9--9-9--5-7--5-7--5------0-2--2-2--0-2--0-2--0--2--0--5--5-5--5-7--5-7--8-7-5-2--2-2------|
D|---------------7-9--9-9--5-7--5-7--5--8\--0-2--2-2--0-2--0-2--0--2--0--5--5-5--5-7--5-7--8-7-5-2--2-2------|




[After Chorus]
                                              (4x)               (Guitar-Solo-Part)
e|-3--3-3-3-3-------------2----3--3-3-3-3--3-3-----|-------------------------------|
B|-3--3-3-3-3-----------3--3---3--3-3-3-3--3-3-----|-------------------------------|
G|-0--0-0-0-0------------------0--0-0-0-0--0-0-----|----16-14-------14-------------|
D|-2--2-2-2-2-x----------------2--2-2-2-2--2-2-----|----------16-14----17~---------|
A|-x--x-x-x-x-x-------0--------x--x-x-x-x--x-x-----|-------------------------------|
D|-2--2-2-2-2-x-4-5-6----------2--2-2-2-2--2-2-----|-------------------------------|




[Verse]

e|--------------------------------------------------|
B|--------------------------------------------------|
G|--2--2-2------2--2-2------2--2-2------2--2-2------|
D|--2--2-2------2--2-2------2--2-2------2--2-2------|
A|--0--0-0---2--0--0-0------0--0-0---2--0--0-0------|
D|---------5-----------5-2---------5-----------5-2--|


                              (2x)
e|-3--3-3-3-3-------------2--------|
B|-3--3-3-3-3-----------3--3-------|
G|-0--0-0-0-0----------------------|
D|-2--2-2-2-2-x--------------------|
A|-x--x-x-x-x-x-------0------------|
D|-2--2-2-2-2-x-4-5-6--------------|



e|--------------------------------------------------|
B|--------------------------------------------------|
G|--2--2-2------2--2-2------2--2-2------2--2-2------|
D|--2--2-2------2--2-2------2--2-2------2--2-2------|
A|--0--0-0---2--0--0-0------0--0-0---2--0--0-0------|
D|---------5-----------5-2---------5-----------5-2--|


                              (2x)
e|-3--3-3-3-3-------------2--------|
B|-3--3-3-3-3-----------3--3-------|
G|-0--0-0-0-0----------------------|
D|-2--2-2-2-2-x--------------------|
A|-x--x-x-x-x-x-------0------------|
D|-2--2-2-2-2-x-4-5-6--------------|




[Pre-Chorus]

e|---------------------------------------------|
B|---------------------------------------------|
G|--------------------------2------------------|
D|-x-4-4--2--0--2--5--2-0---2----5--0--2-------|
A|-x-2-2------------------0-0----5--0--2-------|
D|-------------------------------5--0--2-------|


e|-3--3-3-3-3-------------2----3--3-3-3-3--3-3-----|
B|-3--3-3-3-3-----------3--3---3--3-3-3-3--3-3-----|
G|-0--0-0-0-0------------------0--0-0-0-0--0-0-----|
D|-2--2-2-2-2-x----------------3--3-3-3-3--3-3-----|
A|-x--x-x-x-x-x-------0--------x--x-x-x-x--x-x-----|
D|-2--2-2-2-2-x-4-5-6----------2--2-2-2-2--2-2-----|




[Chorus]

e|--------------------------------------------------------------------------------------------------------|
B|--------------------------------------------------------------------------------------------------------|
G|--------------------------------------------------------------------------------------------------------|
D|-7-9--7-9-7--9-7-9--9-9--5-7--5-7--5------0-2--2-2--0-2--0-2--0--2--0--5--5-5--5-7--5-7--8-7-5-2--2-2---|
A|-5-7--5-7-5--7-7-9--9-9--5-7--5-7--5------0-2--2-2--0-2--0-2--0--2--0--5--5-5--5-7--5-7--8-7-5-2--2-2---|
D|---------------7-9--9-9--5-7--5-7--5--8\--0-2--2-2--0-2--0-2--0--2--0--5--5-5--5-7--5-7--8-7-5-2--2-2---|


e|-----------------------------------------------------------------------------------------------------------|
B|-----------------------------------------------------------------------------------------------------------|
G|-----------------------------------------------------------------------------------------------------------|
D|-7-9--7-9-7--9-7-9--9-9--5-7--5-7--5------0-2--2-2--0-2--0-2--0--2--0--5--5-5--5-7--5-7--8-7-5-2--2-2--0-2-|
A|-5-7--5-7-5--7-7-9--9-9--5-7--5-7--5------0-2--2-2--0-2--0-2--0--2--0--5--5-5--5-7--5-7--8-7-5-2--2-2--0-2-|
D|---------------7-9--9-9--5-7--5-7--5--8\--0-2--2-2--0-2--0-2--0--2--0--5--5-5--5-7--5-7--8-7-5-2--2-2--0-2-|


e|------------------------------------------------------|
B|------------------------------------------------------|
G|------------------------------------------------------|
D|--0-2--0--2--0--5--5-5--5-7--5-7--8-7-5-9--9-9--------|
A|--0-2--0--2--0--5--5-5--5-7--5-7--8-7-5-9--9-9--5-7---|
D|--0-2--0--2--0--5--5-5--5-7--5-7--8-7-5-9--9-9--------|




[Solo]

e|-------5----------------------|--------5------------------------3~~----|
B|-----5---5-8--7-5----5--------|------5---5-8--7-5----5----------3~~----|
G|-4-5--------------7----7-5----|--4-5--------------7----7-5------0~~----|
D|---------------------------7~-|----------------------------7~----------|
A|------------------------------|----------------------------------------|
D|------------------------------|----------------------------------------|


e|-------5----------------------|--------5------5---7b--10-7---------------------|
B|-----5---5-8--7-5----5--------|------5---5-8----8----------10-8------12~~~~----|
G|-4-5--------------7----7-5----|--4-5----------------------------9-7------------|
D|---------------------------7~-|------------------------------------------------|
A|------------------------------|------------------------------------------------|
D|------------------------------|------------------------------------------------|


e|---------------12-10---------------------------------------------------------17--15--19~~~~-------|
B|------10/12-12-------12-10-12-10-8---10-8~---15-12-15-12-11-12-11---------------------------------|
G|-----------------------------------9------------------------------14-12---------------------------|
D|------------------------------------------------------------------------14------------------------|
A|--------------------------------------------------------------------------------------------------|
D|-12\----------------------------------------------------------------------------------------------|





[While Solo is played]

e|--------------------------------------------------|
B|--------------------------------------------------|
G|--2--2-2------2--2-2------2--2-2------2--2-2------|
D|--2--2-2------2--2-2------2--2-2------2--2-2------|
A|--0--0-0---2--0--0-0------0--0-0---2--0--0-0------|
D|---------5-----------5-2---------5-----------5-2--|


                              (2x)
e|-3--3-3-3-3-------------2--------|
B|-3--3-3-3-3-----------3--3-------|
G|-0--0-0-0-0----------------------|
D|-2--2-2-2-2-x--------------------|
A|-x--x-x-x-x-x-------0------------|
D|-2--2-2-2-2-x-4-5-6--------------|


e|--------------------------------------------------|
B|--------------------------------------------------|
G|--2--2-2------2--2-2------2--2-2------2--2-2------|
D|--2--2-2------2--2-2------2--2-2------2--2-2------|
A|--0--0-0---2--0--0-0------0--0-0---2--0--0-0------|
D|---------5-----------5-2---------5-----------5-2--|


                              (2x)
e|-3--3-3-3-3-------------2--------|
B|-3--3-3-3-3-----------3--3-------|
G|-0--0-0-0-0----------------------|
D|-2--2-2-2-2-x--------------------|
A|-x--x-x-x-x-x-------0------------|
D|-2--2-2-2-2-x-4-5-6--------------|



e|---------------------------------------------|
B|---------------------------------------------|
G|--------------------------2------------------|
D|-x-4-4--2--0--2--5--2-0---2----5--0--2-------|
A|-x-2-2------------------0-0----5--0--2-------|
D|-------------------------------5--0--2-------|


e|-3--3-3-3-3-------------2----3--3-3-3-3--3-3-----|
B|-3--3-3-3-3-----------3--3---3--3-3-3-3--3-3-----|
G|-0--0-0-0-0------------------0--0-0-0-0--0-0-----|
D|-2--2-2-2-2-x----------------3--3-3-3-3--3-3-----|
A|-x--x-x-x-x-x-------0--------x--x-x-x-x--x-x-----|
D|-2--2-2-2-2-x-4-5-6----------2--2-2-2-2--2-2-----|




[After Solo]

                               ...(fisrt Bass)...

e|-----------------------------------------------------------------------------------------------------------|
B|-----------------------------------------------------------------------------------------------------------|
G|-----------------------------------------------------------------------------------------------------------|
D|-----------------------------------------------------------------------------------------------------------|
A|-5-7--5-7-5--7---------------------------------------------------------------------------------------------|
D|---------------5-8--8-8--5-7--5-7--5--8\--0-2--2-2--0-2--0-2--0--2--0--8--8-8--5-7--5-7--8-7-5-2--2-2--0-2-|
   x x  x x x  x x x  x x  x x  x x  x  x   x x  x x  x x  x x  x  x  x  x  x x  x x  x x  x x x x  x x  x x

e|------------------------------------------------------|
B|------------------------------------------------------|
G|------------------------------------------------------|
D|------------------------------------------------------|
A|------------------------------------------------------|
D|--0-2--0--2--0--8--8-8--5-7--5-7--8-7-5-2--2-2--0-2---|
    x x  x  x  x  x  x x  x x  x x  x x x x  x x  x x

e|---------------------------------------------------|
B|---------------------------------------------------|
G|---------------------------------------------------|
D|---------------------------------------------------|
A|---------------------------------------------------|
D|--0-2--0--2--0--8--8-8--5-7--5-7--8-7-5-2--2-2-----|
    x x  x  x  x  x  x x  x x  x x  x x x x  x x



[Outro]

e|------------------------------------------------------------------------------------------------------|
B|------------------------------------------------------------------------------------------------------|
G|------------------------------------------------------------------------------------------------------|
D|-7-9--7-9-7--9-7-9--9-9--5-7--5-7--5------0-2--2-2--7-9--7-9-12--9-7-9--9-9--5-7--5-7--8-7-5-2--2-2---|
A|-5-7--5-7-5--7-7-9--9-9--5-7--5-7--5------0-2--2-2--5-7--5-7-10--7-7-9--9-9--5-7--5-7--8-7-5-2--2-2---|
D|---------------7-9--9-9--5-7--5-7--5--8\--0-2--2-2-----------------7-9--9-9--5-7--5-7--8-7-5-2--2-2---|


e|-----------------------------------------------------------------------------------------------------------|
B|-----------------------------------------------------------------------------------------------------------|
G|-----------------------------------------------------------------------------------------------------------|
D|-7-9--7-9-7--9-7-9--9-9--5-7--5-7--5------0-2--2-2--0-2--0-2--0--2--0--5--5-5--5-7--5-7--8-7-5-2--2-2--0-2-|
A|-5-7--5-7-5--7-7-9--9-9--5-7--5-7--5------0-2--2-2--0-2--0-2--0--2--0--5--5-5--5-7--5-7--8-7-5-2--2-2--0-2-|
D|---------------7-9--9-9--5-7--5-7--5--8\--0-2--2-2--0-2--0-2--0--2--0--5--5-5--5-7--5-7--8-7-5-2--2-2--0-2-|


e|---------------------------------------------------------------------------------------------------|
B|---------------------------------------------------------------------------------------------------|
G|---------------------------------------------------------------------------------------------------|
D|--0-2--0--2--0--5--5-5--5-7--5-7--8-7-5-2--2-2--7-9--7-9-12--9-7-9--9-9--5-7--5-7--8-7-5-2--2--2---|
A|--0-2--0--2--0--5--5-5--5-7--5-7--8-7-5-2--2-2--5-7--5-7-10--7-7-9--9-9--5-7--5-7--8-7-5-2--2--2---|
D|--0-2--0--2--0--5--5-5--5-7--5-7--8-7-5-2--2-2-----------------7-9--9-9--5-7--5-7--8-7-5-2--2--2---|




Have Fun ;)
made by BILLYacbTALENT (YouTube)


************************************

| x  Dead note
| \  Slide down

************************************

            
            
Suggest correction
Creating personal tab
Creating personal tab
You can edit any tab online and save it as your Personal.

You can edit, replace or remove any tab part or add personal notes – all changes will be seen only by you.

Personal tabs can be accessed anytime from any device, even offline.
Learn more »
Give kudos to tab author, rate the tab!
1 2 3 4 5
comments
print report bad tab
3 comments total.
-2 reply
mennims 15 Jul 13, 2017 04:49 AM, edited on July 17 2017, 03:48 pm

Original version lacked solo. Don't submit incomplete tabs. Tab the whole fucking song before posting it you lazy fuck. Didn't even include the riff towards the end of the song.

guest
You may want to rate the tab now too:
select rating
Wanna post a correction for this tab? Suggest correction