Oops, an error
Loading. Please wait.

Hanging By A Thread Bass Tab

version 1
version 1

Whole song

Interactive

2,320 views 6 this week
no commentswrite comment
1 2 3 4 5
x 4
add to favorites
launch autoscroll
font size
0
reset
guitar tuner
Autoscroll
slow
fast
+/-
esc
set tempo
stop
Help us to improve Ultimate-Guitar.com Take our survey!
×
Author
Difficulty
Tuning
novice
D A D G B E
-----------------------------------------------------------------------------
                             Hanging by a thread - Billy Talent
-----------------------------------------------------------------------------
Tabbed by: Andu Needle
E-mail: sulfur_in_my_lungs@yahoo.com

Intro:

G|--------------------------------------------------------------|
D|--------------------------------------------------------------|
A|-22222222-----------------------------------------------------|
D|--------------------------------------------------------------|

G|--------------------------------------------------------------|
D|--------------0-----------------------------------------------|
A|-2202-202-202--20--------------0------------------------------|
D|------------------5545-545-545---54---------------------------|

G|--------------------------------------------------------------|
D|--------------------------------------------------------------|
A|----------------------------22222222--------------------------|
D|-00000000-77777777-55555555-----------------------------------|

Verse:

Basically this is a rougher version of the intro. You`ll figure it out!

G|--------------------------------------------------------------|
D|---------------0----------------------------------------------|
A|-2220222022202--20---------------0----------------------------|
D|-------------------5554555455545---54-------------------------|
                                                                 >(x2)
G|--------------------------------------------------------------|
D|--------------------------------------------------------------|
A|----------------------------22222222--------------------------|
D|-00000000-77777777-55555555-----------------------------------|

Chorus:

G|--------------------------------------------------------------|
D|--------------------------------------------------------------|
A|-77777777----------77777777-----------------------------------|
D|----------55555555----------55555555--------------------------|

G|--------------------------------------------------------------|
D|--------------------------------------------------------------|
A|----------------------------22222222--------------------------|
D|-00000000-77777777-55555555-----------------------------------|

Middle Part:

This part is the same as the intro!

G|--------------------------------------------------------------|
D|--------------0-----------------------------------------------|
A|-2202-202-202--20--------------0------------------------------|
D|------------------5545-545-545---54---------------------------|

G|--------------------------------------------------------------|
D|--------------------------------------------------------------|
A|----------------------------22222222--------------------------|
D|-00000000-77777777-55555555-----------------------------------|

Verse 2 like the first!

The second chorus is the same but it is played twice!

Solo:

G|--------------------------------------------------------------|
D|---------------0----------------------------------------------|
A|-2220222022202--20---------------0----------------------------|
D|-------------------5554555455545---54-------------------------|
                                                                 >(x2)
G|--------------------------------------------------------------|
D|--------------------------------------------------------------|
A|----------------------------22222222--------------------------|
D|-00000000-77777777-55555555-----------------------------------|

Bridge:

G|--------------------------------------------------------------|
D|--------------------------------------------------------------|
A|--------------------------------------------------------------|
D|-2-2-2--4-4-4--5-5-5--77777777-9------------------------------|

2, 4 and 5 are played pretty slow. The rhythm it tricky. Listen it close.

Part before last chorus:

G|--------------------------------------------------------------|
D|----------------4444-5555-7777--------------------------------|
A|-2222-4444-5555----------------2222-4444----------------------|
D|--------------------------------------------------------------|

G|--------------------------------------------------------------|
D|--------------------------------------------------------------|
A|----------------------------22222222--------------------------|
D|-00000000-77777777-55555555-----------------------------------|

Last chorus:

G|--------------------------------------------------------------|
D|--------------------------------------------------------------|
A|-77777777----------77777777-----------------------------------|
D|----------55555555----------55555555--------------------------|
                                                                 >(x2)
G|--------------------------------------------------------------|
D|--------------------------------------------------------------|
A|----------------------------22222222--------------------------|
D|-00000000-77777777-55555555-----------------------------------|

After that:

G|--------------------------------------------------------------|
D|--------------------------------------------------------------|
A|----------------------------22222222--------------------------|
D|-00000000-77777777-55555555-----------------------------------|

G|--------------------------------------------------------------|
D|--------------------------------------------------------------|
A|----------------------------22202-----------------------------|
D|-00000000-77777777-55555555-----------------------------------|

That`s the song. In the beginning riff and the verse riff it`s all about the rhythm. 
Good luck and have fun!
Suggest correction
comments
print report bad tab
guest
You may want to rate the tab now too:
select rating
Wanna post a correction for this tab? Suggest correction