Oops, an error
Loading. Please wait.

Hanging By A Thread Tab

version 1
version 1

Whole song

Interactive

15,899 views 60 this week
1 commentread comment
1 2 3 4 5
excellent!
x 11
add to favorites
launch autoscroll
font size
0
reset
how to read this tab
guitar tuner
Tab Pro tools
  • play this tab
  • loop segment
  • change instrument
  • show fretboard
  • metronome
×
Best way to learn
"Hanging By A Thread"
Autoscroll
slow
fast
+/-
esc
set tempo
stop
Contributor
Intro
Part A
e|-----------------------------------------------------------------------------|
B|------------------------12-10------------------------------------------------|
G|---7---7---9---9---11-----------11------------------------------12--11--10---|
D|-9---9---9---9---9----9---9---9----9-9----9----11----11----12----------------|
A|---------------------------------------10---10----10----10----10--10--10--10-|
D|-----------------------------------------------------------------------------|

Part B
e|--------------------------------------------------------------------------|
B|--------------------------------------------------------------------------|
G|-11--11--12--14-----------------------------------------------------------|
D|---12--12--12--12-11--14--12--11----9----9---11--12---9---9---9---9-------|
A|--------------------12--12--12--12----10---10--10--10---9---9---9---9-----|
D|--------------------------------------------------------------------------|


Verse 1
Part A
e|------------------------------------------------------------------------------|
B|------------------------------------------------------------------------------|
G|------------------------------------------------------------------------------|
D|-9---9-7-9---9-7-9---9-7-9-12-9-7--5---5-4-5---5-4-5---5-4-5-7-5-4------------|
A|-9---9-7-9---9-7-9---9-7-9-12-9-7--5---5-4-5---5-4-5---5-4-5-7-5-4------------|
D|-9---9-7-9---9-7-9---9-7-9-12-9-7--5---5-4-5---5-4-5---5-4-5-7-5-4------------|

Part B
e|-----------------------------------------------------------------------------|
B|-7-7-7-7-8-81010-----------------------------------3-3-3-3-3-3-3-3-----------|
G|----------------------9-9-7-7--------------6-6-7-7-4-4-4-4-4-4-4-4-----------|
D|-7-7-7-7-7-7-7-7-1111-7-7-7-71111--9-9-9-9-5-5-5-5-4-4-4-4-4-4-4-4-----------|
A|-5-5-5-5-5-5-5-5--7-7-7-7-7-7-7-7--5-5-5-5-5-5-5-5-2-2-2-2-2-2-2-2-----------|
D|-0-0-0-0-0-0-0-0--7-7-7-7-7-7-7-7--5-5-5-5-5-5-5-5---------------------------|


Verse 2
Part A
e|------------------------------------------------------------------------------|
B|------------------------------------------------------------------------------|
G|------------------------------------------------------------------------------|
D|-9-9-9-7-9-9-9-7-9-9-9-7-9-12-9-7--5-5-5-4-5-5-5-4-5-5-5-4-5-7-5-4------------|
A|-9-9-9-7-9-9-9-7-9-9-9-7-9-12-9-7--5-5-5-4-5-5-5-4-5-5-5-4-5-7-5-4------------|
D|-9-9-9-7-9-9-9-7-9-9-9-7-9-12-9-7--5-5-5-4-5-5-5-4-5-5-5-4-5-7-5-4------------|
   . . . . . . . . . . . . . .  . .  . . . . . . . . . . . . . . . .

Part B
e|-----------------------------------------------------------------------------|
B|-7-7-7-7-8-81010-----------------------------------3-3-3-3-3-3-3-3-----------|
G|----------------------9-9-7-7--------------6-6-7-7-4-4-4-4-4-4-4-4-----------|
D|-7-7-7-7-7-7-7-7-1111-7-7-7-71111--9-9-9-9-5-5-5-5-4-4-4-4-4-4-4-4-----------|
A|-5-5-5-5-5-5-5-5--7-7-7-7-7-7-7-7--5-5-5-5-5-5-5-5-2-2-2-2-2-2-2-2-----------|
D|-0-0-0-0-0-0-0-0--7-7-7-7-7-7-7-7--5-5-5-5-5-5-5-5---------------------------|
     .   .   .   .  .   .     .   .  .   .   .   .


Verse 2 again


Chorus
Part A
e|--7-7-7-7-7-7-7-7-----------------7-7-7-7-7-7-7-7---------------------------|
B|--8-8-8-8-8-8-8-8-8-8-8-8-8-8-8-8-8-8-8-8-8-8-8-8-8-8-8-8-8-8-8-8-----------|
G|--9-9-9-9-9-9-9-9-7-7-7-7-7-7-7-7-9-9-9-9-9-9-9-9-7-7-7-7-7-7-7-7-----------|
D|--9-9-9-9-9-9-9-9-5-5-5-5-5-5-5-5-9-9-9-9-9-9-9-9-5-5-5-5-5-5-5-5-----------|
A|--7-7-7-7-7-7-7-7-5-5-5-5-5-5-5-5-7-7-7-7-7-7-7-7-5-5-5-5-5-5-5-5-----------|
D|------------------5-5-5-5-5-5-5-5-----------------5-5-5-5-5-5-5-5-----------|

Part B
e|-----------------------------------------------------------------------------|
B|-7---7---8--10-------------------------------------3-3-3-3-3-3-3-3-----------|
G|----------------------9---7----------------6---7---4-4-4-4-4-4-4-4-----------|
D|-7-7-7-7-7-7-7-7-11---7-7-7-711----9---9---5-5-5-5-4-4-4-4-4-4-4-4-----------|
A|-5-5-5-5-5-5-5-5--7-7-7-7-7-7-7-7--5-5-5-5-5-5-5-5-2-2-2-2-2-2-2-2-----------|
D|-0-0-0-0-0-0-0-0--7-7-7-7-7-7-7-7--5-5-5-5-5-5-5-5---------------------------|


Intro

Verse 2 x2

Chorus x2

Chorus Part B


SOLO x2
e|---------------5-5-7--7-9-9--10-10-15-15--|
B|--3-3--5-5-7-7-7-7-8--8-1010-12-12-12-12--|
G|--4-4--6-6-7-7-6-6-7--7-9-9--11-11-12-12--|
D|------------------------------------------|
A|--2-2--4-4-5-5----------------------------|
D|------------------------------------------|

e|---------------------------------------------------------------------------|
B|---------------------------------------------------------------------------|
G|-1111111112121414----------------------------------------------------------|
D|-1212121212121212-1111141412121111--9-9-9-9-11111212-9-9-9-9-9-9-9-9-------|
A|------------------1212121212121212--1010101010101010-9-9-9-9-9-9-9-9-------|
D|---------------------------------------------------------------------------|

Interlude
e|-------------------------------------------------------------------|
B|-------------------------------------------------------------------|
G|-------0-------0-------0-------0-------0-------0-7-7-7-7-6-6-6-6-7-|
D|-----0-------0-------0-------0-------0-------0---7-7-7-7-7-7-7-7-9-|
A|-------------------------------------------------------------------|
D|-2-2-----2-2-----4-4-----4-4-----5-5-----5-5-----------------------|


Intro x2

Chorus x2

Chorus Part B

e|-----------------------------------------------------------------------|
B|-7-7-7-7-8-81010-----------------------------------3-3-3-3-3-----------|
G|----------------------9-9-7-7--------------6-6-7-7-4-4-4-4-4-----------|
D|-7-7-7-7-7-7-7-7-1111-7-7-7-71111--9-9-9-9-5-5-5-5-4-4-4-4-4-----------|
A|-5-5-5-5-5-5-5-5--7-7-7-7-7-7-7-7--5-5-5-5-5-5-5-5-2-2-2-0-2-----------|
D|-0-0-0-0-0-0-0-0--7-7-7-7-7-7-7-7--5-5-5-5-5-5-5-5---------------------|
comments
print report bad tab
1 comment total.
+7 reply
Heinz90 wrote on January 19 2013, 06:51 am

Instead of 
Intro
Part A
e|-----------------------------------------------------------------------------|
B|------------------------12-10------------------------------------------------|
G|---7---7---9---9---11-----------11------------------------------12--11--10---|
D|-9---9---9---9---9----9---9---9----9-9----9----11----11----12----------------|
A|---------------------------------------10---10----10----10----10--10--10--10-|
D|-----------------------------------------------------------------------------|

I would say

Intro
Part A
e|-----------------------------------------------------------------------------|
B|------------------------12-10------------------------------------------------|
G|---7---7---9---9---11-----------11------------------------------12--11--9----|
D|-9---9---9---9---9----9---9---9----9-9----9----11----11----12----------------|
A|---------------------------------------10---10----10----10----10--10--10--10-|
D|-----------------------------------------------------------------------------|

I want to post or [tab]
guest
You may want to rate the tab now too:
select rating
Please do not post tabs as comments. Select "correction" instead!