Oops, an error
Loading. Please wait.

Horses Chariots tab

version 1
version 1

Whole song

Interactive

1,927 views 9 this week
2 commentsread comments
1 2 3 4 5
x 4
add to favorites
×
Save as Personal and add changes to this tab that will be seen only by you. Learn more ›
×
You can save this tab as Personal to edit and correct it or add notes. All changes will be seen only by you. Learn more »
launch autoscroll
font size
0
reset
how to read this tab
guitar tuner
edit
Autoscroll
slow
fast
+/-
esc
set tempo
stop
[Intro]

e|---------------------------------------------------------------------------|
B|--5-5--5-5--5-5---7-7--7-7--7-7---5-5--5-5--5-5---4-4--4-4--4-4------------|
G|--5-5--5-5--5-5---5-5--5-5--5-5---4-4--4-4--4-4---4-4--4-4--4-4------------|
D|---------------------------------------------------------------------------|
A|---------------------------------------------------------------------------|
D|---------------------------------------------------------------------------|

e|-----------------------------------------------------------------------------------|
B|--8-8--8-10--10-10---7-7--7-8--8-8--------------13-13--13-12-12--12----------------|
G|--9-9--9-9---9-9-----7-7--7-7--7-7----12-12--12-12-12--12-12-12--12-12-------------|
D|--------------------------------------10-10--10-10-10--10-10-10--10-10-------2-----|
A|-----------------------------------------------------------------------------2-----|
D|-----------------------------------------------------------------------------2-----|


[Verse]

e|---------------------------------------------------------------------------|  x2
B|---------------------------------------------------------------------------|
G|---------------------------------------------------------------------------|
D|---------------------------------------------------------------------------|
A|---------------------------------------------------------------------------|
D|----2-----0----------7-----5----------10-----9----------2----0----7--------|


[Chorus]

e|---------------------------------------------------------------------------|
B|--5-5--5-5--5-5---7-7--7-7--7-7----5-5--5-5--5-5---4-4--4-4--4-4-----------|
G|---------------------------------------------------------------------------|
D|--5-5--5-5--5-5---5-5--5-5--5-5----4-4--4-4--4-4---4-4--4-4--4-4-----------|
A|--3-3--3-3--3-3---3-3--3-3--3-3----2-2--2-2--2-2---2-2--2-2--2-2-----------|
D|---------------------------------------------------------------------------|
                                                                                    
e|---------------------------------------------------------------------------| x2   ---|  (played after the
B|--8-8--8-10-10----7-7--7-8--8-8---------------13-13--13--12-12--12---------|      ---|   the second time) 
G|-----------------------------------12-12--12--12-12--12--12-12--12-12------|      ---|
D|--9-9--9-9--9-9---7-7--7-7--7-7----10-10--10--10-10--10--10-10--10-10------|      -2-|
A|--7-7--7-7--7-7---5-5--5-5--5-5----10-10--10--10-10--10--10-10--10-10------|      -2-|
D|-----------------------------------10-10--10--10-10--10--10-10--10-10------|      -2-|


[Verse]

e|---------------------------------------------------------------------------|  x2
B|---------------------------------------------------------------------------|
G|---------------------------------------------------------------------------|
D|---------------------------------------------------------------------------|
A|---------------------------------------------------------------------------|
D|----2-----0----------7-----5----------10-----9----------2----0----7--------|


[Chorus]

e|---------------------------------------------------------------------------|
B|--5-5--5-5--5-5---7-7--7-7--7-7----5-5--5-5--5-5---4-4--4-4--4-4-----------|
G|---------------------------------------------------------------------------|
D|--5-5--5-5--5-5---5-5--5-5--5-5----4-4--4-4--4-4---4-4--4-4--4-4-----------|
A|--3-3--3-3--3-3---3-3--3-3--3-3----2-2--2-2--2-2---2-2--2-2--2-2-----------|
D|---------------------------------------------------------------------------|
                                                                                    
e|---------------------------------------------------------------------------| x2     
B|--8-8--8-10-10----7-7--7-8--8-8---------------13-13--13--12-12--12---------|         
G|-----------------------------------12-12--12--12-12--12--12-12--12-12------|      
D|--9-9--9-9--9-9---7-7--7-7--7-7----10-10--10--10-10--10--10-10--10-10------|      
A|--7-7--7-7--7-7---5-5--5-5--5-5----10-10--10--10-10--10--10-10--10-10------|      
D|-----------------------------------10-10--10--10-10--10--10-10--10-10------|     



[Bridge]


e|---------------------------------------------------------------------------|
B|--5-5--5-5--5-5---7-7--7-7--7-7----7-7--7-7--7-7---8-8--8-8--8-8-----------|
G|---------------------------------------------------------------------------|
D|--5-5--5-5--5-5---5-5--5-5--5-5----7-7--7-7--7-7---8-8--8-8--8-8-----2-----|
A|--3-3--3-3--3-3---3-3--3-3--3-3----5-5--5-5--5-5---6-6--6-6--6-6-----2-----|
D|---------------------------------------------------------------------2-----|


[Solo]

e|---------------------------------------------------------------------------12---|
B|-----8------8-----7-----7-------5---3---1---0---7---8-----------------8-12------|
G|----------------------------------0---0---0---0---0------9--11---9-11-----------|
D|--10---10p9---9p7---7p9---9p7---------------------------------------------------|
A|--------------------------------------------------------------------------------|
D|--------------------------------------------------------------------------------|

e|---------------------------------------------------------------------------15b17br15------|
B|------------------------------------------------------------------------15-----------15~--|
G|--14b16br14b16-14b16---14b16br14p12----14-12~---------------------12\16--------------12~--|
D|------------------------------------14-----------14p12----12---14-------------------------|
A|-------------------------------------------------------14---------------------------------|
D|------------------------------------------------------------------------------------------|

e|------12-12--12--10-10--10-------------------------------------------------------------------------|
B|----------------------------13-13--13--12-12--12----10-10--10--13-13--13---12-12--12--10-10--10----|
G|--12--12-12--12--12-12--12--12-12--12--12-12--12----11-11--11--11-11--11---11-11--11--11-11--11----|
D|--10--10-10--10--10-10--10--10-10--10--10-10--10----9--9---9---9--9---9----9--9---9---9--9---9-----|
A|---------------------------------------------------------------------------------------------------|
D|---------------------------------------------------------------------------------------------------|

e|--------------------------------------------|
B|--12~-14~--12~------------------------------|
G|--12~-14~--12~------------------------------|
D|----------------14~-12~---------------------|
A|-----------------------14~-12~-10~----------|
D|--------------------------------------------|

[Bridge] 2

e|---------------------------------------------------------------------------|
B|-----------------------------------------------12--------------------------|
G|-----------------------------------------------11--------------------------|
D|--7-----5----10----9-------7-----5-------9-----9-------2-----2-------------|
A|--7-----5----10----9-------7-----5-------9-----9-------2-----2-------------|
D|--7-----5----10----9-------7-----5-------9-----9-------2-----2-------------|


[Chorus]

e|---------------------------------------------------------------------------|
B|--5-5--5-5--5-5---7-7--7-7--7-7----5-5--5-5--5-5---4-4--4-4--4-4-----------|
G|---------------------------------------------------------------------------|
D|--5-5--5-5--5-5---5-5--5-5--5-5----4-4--4-4--4-4---4-4--4-4--4-4-----------|
A|--3-3--3-3--3-3---3-3--3-3--3-3----2-2--2-2--2-2---2-2--2-2--2-2-----------|
D|---------------------------------------------------------------------------|
                                                                                    
e|---------------------------------------------------------------------------| x2     
B|--8-8--8-10-10----7-7--7-8--8-8---------------13-13--13--12-12--12---------|         
G|-----------------------------------12-12--12--12-12--12--12-12--12-12------|      
D|--9-9--9-9--9-9---7-7--7-7--7-7----10-10--10--10-10--10--10-10--10-10------|      
A|--7-7--7-7--7-7---5-5--5-5--5-5----10-10--10--10-10--10--10-10--10-10------|      
D|-----------------------------------10-10--10--10-10--10--10-10--10-10------|     




[Outro]


e|--------------------------------------------------------------------------|
B|--5-5--5-5--5-5---7-7--7-7--7-7----7-7--7-7--7-7---8-8--8-8--8-8----------|
G|--------------------------------------------------------------------------|
D|--5-5--5-5--5-5---5-5--5-5--5-5----7-7--7-7--7-7---8-8--8-8--8-8----------|
A|--3-3--3-3--3-3---3-3--3-3--3-3----5-5--5-5--5-5---6-6--6-6--6-6----------|
D|--------------------------------------------------------------------------|

e|---------------------------------------------------------------------------|      
B|--8-8--8-10-10----7-7--7-8--8-8---------------13-13--13--12-12--12---------|         
G|-----------------------------------12-12--12--12-12--12--12-12--12-12------|      
D|--9-9--9-9--9-9---7-7--7-7--7-7----10-10--10--10-10--10--10-10--10-10------|      
A|--7-7--7-7--7-7---5-5--5-5--5-5----10-10--10--10-10--10--10-10--10-10------|      
D|-----------------------------------10-10--10--10-10--10--10-10--10-10------|     

e|--------------------------------------------------------------------------|
B|--5-5--5-5--5-5---7-7--7-7--7-7----7-7--7-7--7-7---8-8--8-8--8-8----------|
G|--------------------------------------------------------------------------|
D|--5-5--5-5--5-5---5-5--5-5--5-5----7-7--7-7--7-7---8-8--8-8--8-8----------|
A|--3-3--3-3--3-3---3-3--3-3--3-3----5-5--5-5--5-5---6-6--6-6--6-6----------|
D|--------------------------------------------------------------------------|

e|---------------------------------------------------------------------------|    
B|--8-8--8-10-10----7-7--7-8--8-8---------------13-13--13--12-12--12---------|         
G|-----------------------------------12-12--12--12-12--12--12-12--12-12------|      
D|--9-9--9-9--9-9---7-7--7-7--7-7----10-10--10--10-10--10--10-10--10-10------|      
A|--7-7--7-7--7-7---5-5--5-5--5-5----10-10--10--10-10--10--10-10--10-10------|      
D|-----------------------------------10-10--10--10-10--10--10-10--10-10------|   

e|--------------------------------------------------------------------------------|   
B|--8-8--8-10-10----7-7--7-8--8-8---------------13-13--13--12-12--12--------------|     
G|-----------------------------------12-12--12--12-12--12--12-12--12-12-----------|   
D|--9-9--9-9--9-9---7-7--7-7--7-7----10-10--10--10-10--10--10-10--10-10------2----| 
A|--7-7--7-7--7-7---5-5--5-5--5-5----10-10--10--10-10--10--10-10--10-10------2----|
D|-----------------------------------10-10--10--10-10--10--10-10--10-10------2----| 



************************************

| x   Dead note
| g   Grace note
| (n) Ghost note
| h   Hammer-on
| p   Pull-off
| r   Release
| >   Accented note
| t   Tapping
| b   Bend
| br  Bend release
| pb  Pre-bend
| pbr Pre-bend release
| /   Slide up
| \   Slide down
| ~   Vibrato
| s   Slap
| P   Pop
| PM  Palm mute
| TR  Trill
| N   Tremolo

************************************

            
            
Suggest correction
Creating personal tab
Creating personal tab
You can edit any tab online and save it as your Personal.

You can edit, replace or remove any tab part or add personal notes – all changes will be seen only by you.

Personal tabs can be accessed anytime from any device, even offline.
Learn more »
comments
print report bad tab
2 comments total.
0 reply
mitchell.assen 10 Aug 16, 2016 02:27 AM

I'm gonna give this four stars because while a lot of it seems pretty correct, it appears that the intro is lacking a few strings that are played, I'm almost certain that by listening to it I can hear the A and high D strings being played.

guest
You may want to rate the tab now too:
select rating
Wanna post a correction for this tab? Suggest correction