Oops, an error
Loading. Please wait.

In The Fall Tab

version 1
version 1

Whole song

Interactive

4,946 views 3 this week
1 commentread comment
1 2 3 4 5
accurate
x 4
add to favorites
launch autoscroll
font size
0
reset
how to read this tab
guitar tuner
Autoscroll
slow
fast
+/-
esc
set tempo
stop
Help us to improve Ultimate-Guitar.com Take our survey!
×
I couldn't find this anywhere so I had to tab it out on my own. This song is sick, you're welcome.

110 bpm's
Intro
|----------------12---10-------------------------------------------------------------------|
|------10---12-------------12---10---10--------------------13----12------------------------|
|-----9--9----9----9----9----9----9------------11----12----------------12----11------------|
|-10------10---10---10---10---10---10--------10--10----10----10----10----10----10--9p7h910-|
|----------------------------------------12--------12----12----12----12----12----12--------|
|------------------------------------------------------------------------------------------|

|------------12---10-----------------------------------------------------------------------|
|--10---12-------------12---10---10--------------------13----12----------777777------------|
|-9--9----9----9----9----9----9------------11----12----------------12----555555------------|
|-----10---10---10---10---10---10--------10--10----10----10----10----10--777777------------|
|------------------------------------12--------12----12----12----12----12------------------|
|------------------------------------------------------------------------------------------|
                                                                   eleven's  
verse:1                                                               \/
|-------------------------------------------------------------------------------------|
|---10--------8---------10--------8---------------------------------------------------|
|---9---------9---------9---------9--------------999999999999111111111111121212121212-|
|---9---------9---------9---------9--------------9999999999999-9-9-9-9-9-9-9-9-9-9-9--|   
|-------------------------------------------------------------------------------------|
|-------------------------------------------------------------------------------------|
time...  waves...   away...   rain...   yesterday..                      

|--------------------------------------------------|
|-121212121212101010101010------------101010101010-|
|-------------------------121212121212-------------|
|-1212121212121010101010109-9-9-9-9-9-101010101010-|
|--------------------------------------------------|
|--------------------------------------------------|

                                                  fill: 
|------------------------------------------------|----------------12---10------------------|
|----10---------8------------10--------8---------|------10---12-------------12---10---12---|
|----9----------11-----------9---------11--------|-----9--9----9----9----9----9----9-------|
|----9----------9------------9---------9---------|-10------10---10---10---10---10---10-----|
|------------------------------------------------|-----------------------------------------|
|------------------------------------------------|-----------------------------------------|
 lost...   place...   remains...   face...   again...

|--------------------------------------------------------------------------------------|
|-------------------13----12-----------------------------------12---10-----------------|
|-------11----12----------------12----11--------------9---11-------------11---9---11---|
|-----10--10----10----10----10----10----10--9p7h9----9-9----9----9----9----9---9-------|
|-12--------12----12----12----12----12----12-----10-----10---10---10---10---10--10-----|
|--------------------------------------------------------------------------------------|

pre-chorus:                     chorus:
|-------------------------------|---------------------------------------------------------------|
|-------------------------------|.--------------------------------------------------------------|
|-6-6--66-6-6--66-7-7--77-6-6-6-|-7777777777779-9-9-9-9-9-111111111111--------------------------|
|-4-4--44-4-4--44-4-4--44-4-4-4-|-999999999999111111111111121212121212-5-57p55-57p55-57p55-57p5-|
|-4-4--44-4-4--44-4-4--44-4-4-4-|.-------------------------------------5-5---5-5---5-5---5-5----|
|-4-4--44-4-4--44-4-4--44-4-4-4-|--------------------------------------5-5---5-5---5-5---5-5----|

|---------------------------------------------------------------------|
|--------------------------------------------------------------------.|
|-7777777777779-9-9-9-9-9-111111111111-6-6--66-6-6--66-7-7--77-6-6-6--|repeat
|-777777777777111111111111121212121212-4-4--44-4-4--44-4-4--44-4-4-4--|chorus
|-9999999999991212121212129-9-9-9-9-9--4-4--44-4-4--44-4-4--44-4-4-4-.|
|-0000000000000-0-0-0-0-0-0-0-0-0-0-0--4-4--44-4-4--44-4-4--44-4-4-4--|

|-------------------------------------------------------------------|
|-----------------121212121212101010101010------------101010101010--|
|-11--9---11--12---------------------------121212121212-------------|
|-10--10--12--10--12121212121210101010-10109-9-9-9-9-9-101010101010-|
|-10--10--10--10----------------------------------------------------|
|-------------------------------------------------------------------|

verse2:                                    
|---------------------------------------------|
|---------------------------------------------|
|----10--------8---------10------8------------|
|----9---------11--------9-------11-----------|
|----9---------9---------9-------9------------|
|---------------------------------------------|
 love...   part...   dark... fool...   arms...

fill

repeat pre-chorus and chorus

|-------------------------------------------------------------------------------------------------|
|.----------------------------------------------121212121212101010101010------------101010101010-.|
|--11-11111111-9--9-9-9-9--11-11111111-12121212-------------------------121212121212--------------|
|--10-10101010-10-10101010-12-12121212-10101010-1212121212121010101010109-9-9-9-9-9-101010101010--|
|.-10-10101010-10-10101010-10-10101010-10101010--------------------------------------------------.|
|-------------------------------------------------------------------------------------------------|
repeat

|-------------------------8-8-8-8-8-8-101010101010121212121212101010101010888888101010101010-|
|-101010101010121212121212101010101010101010101010-------------------------------------------|
|-101010101010101010101010------------------------121212121212101010101010999999101010101010-|
|--------------------------------------------------------------------------------------------|
|--------------------------------------------------------------------------------------------|
|--------------------------------------------------------------------------------------------|

fill

pre-chorus and chorus repeated twice

outro:
|---------------------------------------------|
|-----------------12--10--8--101010101010--8--|
|-11--9---11--12---------------------------9--|
|-10--10--12--10--12--10--9--101010101010--9--|
|-10--10--10--10---------------------------10-|
|---------------------------------------------|
Suggest correction
comments
print report bad tab
1 comment total.
0 reply
unknown-user 40 wrote on May 17 2009, 06:31 am

intro is wrong

guest
You may want to rate the tab now too:
select rating
Please do not post tabs as comments. Select "correction" instead!