Oops, an error
Loading. Please wait.

Leave Them All Behind Tab

version 1
version 1

Whole song

  • This is the only tab of this song :) Leave them all behind TAB.
58 views 36 this week
2 commentsread comments
1 2 3 4 5
1 last vote to show rating
add to favorites
launch autoscroll
font size
0
reset
how to read this tab
guitar tuner
Autoscroll
slow
fast
+/-
esc
set tempo
stop
Help us to improve Ultimate-Guitar.com Take our survey!
×
Author
Difficulty
Tuning
advanced
D G C F A D
About this tab version
This is the only tab of this song :) Leave them all behind TAB. Was this info helpful? Yes No
[Intro]

e|---------------------------------------------------------------------------|
B|---------------------------------------------------------------------------|
G|-----2---2---2-----2-------2-----2----2---2-----2-------2-----2---2---2----|
D|---0---0---0-----0---0---0-----0----0---0-----0---0---0-----0---0---0------|
A|-5-------------5------------------------------------2-----0----------------|
E|-----------------------4-----5--------------5------------------------------|

e|---------------------------------------------------------------------------|
B|---------------------------------------------------------------------------|
G|-----2--------2-----2---2---2-----2---2---2--------------------------------|X2
D|---0---0----0-----0---0---0-----0---0---0----------------------------------|
A|-0-------------------------------------------------------------------------|
E|----------4-----5-------------0--------------------------------------------|


[Verse]

e|---------------------------------------------------------------------------|
B|-----3-------3-------3---------------3-------3-------3---------------------|
G|-2-2---2-0-0---0-----------------2-2---2-0-0---0---------------------------|
D|-----------------4-4---4-5p4p0-------------------4-4---4-5p4p0-------------|
A|---------------------------------------------------------------------------|
E|---------------------------------------------------------------------------|

e|------------------------------------------x--------------------------------------------------------------|
B|-----3-------3---------3------------------3---------3-------------------------------3-33-----------------|
G|-------0-------0---------0----------------2---------2-------------------------------2-22-----------------|
D|-2-2-----4-4-----4s5-5-----5p4p0--9--99-750---5p4p0-0-7779--12-12-12-11--777-9-9975-0-00-----------------|
A|----------------------------------5--55-550---------0-5555--9--9--9--7---555-5-5555-0-00-----------------|
E|----------------------------------5--55-550---------0-4445--9--9--9--7---444-5-5555-0-00-----------------|


[Chorus]

e|---------------------------------------------------------------------------------|
B|-33333---------------------------------------------3-----------------------------|
G|-22222---------------------------------------------2-----------------------------|
D|-00000--777-9999999--121212-1111111111-7779-99-75--0-----------------------------|
A|-00000--555-9999999--9-9-9--7-7-7-7-7--5555-55-55--0-----------------------------|
E|-00000--444-5555555--9-9-9--7-7-7-7-7--4445-55-55--0-----------------------------|

[SOLO]

e|-------------10---------9--------------------------------------------------------------------------------5-|
B|-------------------------------------12--12-----------------------8---7---5---8---7---5-----5--------5-----|
G|12p11-7-9s11---11-9-7-9---9-7-6-7--12--12--14-12-14--14-11-14-----------------------------7---7----7---7---|
D|----------------------------------------------------------------7---7---7---7---7---7---7--------5---------|
A|-----------------------------------------------------------------------------------------------------------|
E|-----------------------------------------------------------------------------------------------------------|

e|-----------------------------------------------------------------9--9--9h10p9---------10-7--5--------------|
B|-8p7---7---7---7h8p7--10-10-10-12-10--12--12--12-14-15--15--15----------------10---710----------8-7-8-7-5h7|
G|-----7---7---7----------9--9------------12--12--------14--14----9--9--9-----------7-------7--7-7-7-7-7---7-|
D|-----------------------------------------------------------------------------------------------------------|
A|-----------------------------------------------------------------------------------------------------------|
E|-----------------------------------------------------------------------------------------------------------|


************************************

| x   Dead note
| g   Grace note
| (n) Ghost note
| h   Hammer-on
| p   Pull-off
| r   Release
| >   Accented note
| t   Tapping
| b   Bend
| br  Bend release
| pb  Pre-bend
| pbr Pre-bend release
| /   Slide up
| \   Slide down
| ~   Vibrato
| s   Slap
| P   Pop
| PM  Palm mute
| TR  Trill
| N   Tremolo

************************************
Suggest correction
Give kudos to tab author, rate the tab!
1 2 3 4 5
comments
print report bad tab
2 comments total.
-1 reply
MichaelBILLY 517 4 days ago

wrong tuning.... it´s drop-D.
but all in all, nice job :)

+1 reply
MichaelBILLY 517 4 days ago

also the tab is not complete...

guest
You may want to rate the tab now too:
select rating
Wanna post a correction for this tab? Suggest correction