Oops, an error
Loading. Please wait.

Leave Them All Behind tab

version 2
version 2

Whole song

  • This is the only tab of this song :) Leave them all behind TAB.
406 views 18 this week
no commentswrite comment
1 2 3 4 5
x 3
add to favorites
×
Save as Personal and add changes to this tab that will be seen only by you. Learn more ›
×
You can save this tab as Personal to edit and correct it or add notes. All changes will be seen only by you. Learn more »
launch autoscroll
font size
0
reset
how to read this tab
guitar tuner
edit
Autoscroll
slow
fast
+/-
esc
set tempo
stop
Billy Talent - Leave Them All Behind


Guitar-Cover: https://www.youtube.com/watch?v=YXFdEvilS18

[Intro]


e|-----------------------------------------------------------------------------------------------------------|
B|-----------------------------------------------------------------------------------------------------------|
G|------2---2---2------2-------2------2---2---2-----2-------2------2---2---2-----2-------2------2---2---2----|
D|-0--0---0---0---0--0---0---0------0---0---0-----0---0---0------0---0---0-----0---0---0------0---0---0------|
A|------------------------------------------------------2-----0--------------0-------------------------------|
D|-------------------------4-----5--------------5------------------------------------4-----5--------------0--|

                                                      
e|---------------------|
B|---------------------|                       (2x)
G|----2---2---2--------|
D|--0---0---0----------|
A|---------------------|
D|---------------------|



e|-----------------------------------------------------------------------------|
B|-----------------------------------------------------------------------------|
G|------2---2---2-----2---2---2-----2---2---2-----2---2---2------2---2---2-----|
D|----0---0---0-----0---0---0-----0---0---0-----0---0---0------0---0---0-------|
A|--2-------------0------------------------------------------0-----------------|
D|------------------------------5-------------0--------------------------------|


e|----------------------------------------------------|
B|----------------------------------------------------|
G|------2-----2-----2---2---2-----2---2---2-----------|
D|----0-----0-----0---0---0-----0---0---0-------------|
A|--0-------------------------------------------------|
D|--------4-----5-------------5-----------------------|


e|-----------------------------------------------------------------------------|
B|-----------------------------------------------------------------------------|
G|------2---2---2-----2---2---2-----2---2---2-----2---2---2------2---2---2-----|
D|----0---0---0-----0---0---0-----0---0---0-----0---0---0------0---0---0-------|
A|--2-------------0------------------------------------------0-----------------|
D|------------------------------5-------------0--------------------------------|


e|-------------------------|
B|-------------------------|
G|------2-----2--2~--------|
D|----0-----0----0~--------|
A|--0----------------------|
D|--------4------5~--------|


e|------------------------------------------------------------------------------------------------------|
B|--------------------------------------------3-------3-------3--------------3-------3-------3----------|
G|-2-2-2-2-2-2-2-2-2-2-2-2-2-2-2-2--------2-2---2-0-0---0----------------2-2---2-0-0---0----------------|
D|-0-0-0-0-0-0-0-0-0-0-0-0-0-0-0-0--5-4-0-----------------5-5---5--5-4-0-----------------5-5---5--------|
A|------------------------------------------------------------------------------------------------------|
D|------------------------------------------------------------------------------------------------------|
   x x x x x x x x x x x x 


e|-----------------------------------------------------------------------|
B|------------3-------3-------3---------------------3--3--3-3-3----------|
G|--------------------------------------------------2--2--2-2-2----------|
D|--5-4-0-2-2---2-4-4---4-5-5---5-5-4-0-9--9--9-7-5-0--0--0-0-0----------|
A|--------------------------------------5--5--5-5-5-0--0--0-0-0----------|
D|--------------------------------------5--5--5-5-5-0--0--0-0-0----------|



[Verse]

e|--------------------------------------------------------------------|
B|--3--------------------------------------------------3--3--3-3-3----|
G|--2--------------------------------------------------2--2--2-2-2----|
D|--0----7-7-7--9----12-12-12--11---7-7-7--9--9--9-7-5-0--0--0-0-0----|
A|--0----5-5-5--5----9--9--9---7----5-5-5--5--5--5-5-5-0--0--0-0-0----|
D|--0----4-4-4--5----9--9--9---7----4-4-4--5--5--5-5-5-0--0--0-0-0----|

e|-----------------------------------------------------------|
B|------3-------3-------3--------------3-------3-------3-----|
G|--2-2---2-0-0---0----------------2-2---2-0-0---0-----------|
D|------------------5-5---5--5-4-0-----------------5-5---5---|
A|-----------------------------------------------------------|
D|-----------------------------------------------------------|

e|------------------------------------------------------------------|
B|------------3-------3-------3---------------------3--3------------|
G|--------------------------------------------------2--2------------|
D|--5-4-0-2-2---2-4-4---4-5-5---5-5-4-0-9--9--9-7-5-0--0------------|
A|--------------------------------------5--5--5-5-5-0--0------------|
D|--------------------------------------5--5--5-5-5-0--0------------|



[Pre-Chorus]
                                                                                               
e|-------------------------------------------------------------------|
B|-------------------------------------------------------------------|
G|------------2---2---2-----2---2---2-----2---2---2-----2---2---2----|
D|--5-4-0---0---0---0-----0---0---0-----0---0---0-----0---0---0------|
A|--------2-------------0--------------------------------------------|
D|------------------------------------5-------------0----------------|

e|---------------------------------------------------------|
B|---------------------------------------------------------|
G|--2-2-2--2-2-2-------------------------------------------|
D|--2-2-2--2-2-2--7-7-7--7-7-7--9-9-9--9-9-9--9-9-9--------|
A|--0-0-0--0-0-0--5-5-5--5-5-5--5-5-5--5-5-5--5-5-5--------|
D|----------------4-4-4--4-4-4--5-5-5--5-5-5--5-5-5--------|
    x x    x x    x x    x x    x x    x x    x x


e|-------------------------------------------------------------------|
B|-------------------------------------------------------------------|
G|------------2---2---2-----2---2---2-----2---2---2-----2---2---2----|
D|--5-4-0---0---0---0-----0---0---0-----0---0---0-----0---0---0------|
A|--------2-------------0--------------------------------------------|
D|------------------------------------5-------------0----------------|


e|---------------------------------------------------------|
B|---------------------------------------------------------|
G|--2-2-2--2-2-2-------------------------------------------|
D|--2-2-2--2-2-2--7-7-7--7-7-7--9-9-9-9-9-9-9-9-9----------|
A|--0-0-0--0-0-0--5-5-5--5-5-5--5-5-5-5-5-5-5-5-5----------|
D|----------------4-4-4--4-4-4--5-5-5-5-5-5-5-5-5----------|
    x x    x x    x x    x x




[Chorus]
                                                                            (2x)
e|---------------------------------------------------------------------------------------|
B|-3-3-3-3-3---------------------------------------------------------------------3--3----|
G|-2-2-2-2-2---------------------------------------------------------------------2--2----|
D|-0-0-0-0-0--7-7--7-9-9-9-9-9-9-9--12-12--12-11-11-11-11-11-7-7--7-9--9--9-7-5--0--0----|  
A|-0-0-0-0-0--5-5--5-9-9-9-9-9-9-9--9--9---9--7--7--7--7--7--5-5--5-5--5--5-5-5--0--0----|
D|-0-0-0-0-0--4-4--4-5-5-5-5-5-5-5--9--9---9--7--7--7--7--7--4-4--4-5--5--5-5-5--0--0----|



[After Chorus]

e|-----------------------------------------------------------------|
B|------------3-------3-------3--------------3-------3-------3-----|
G|--------2-2---2-0-0---0----------------2-2---2-0-0---0-----------|
D|--5-4-0-----------------5-5---5--5-4-0-----------------5-5---5---|
A|-----------------------------------------------------------------|
D|-----------------------------------------------------------------|

e|------------------------------------------------------------------|
B|------------3-------3-------3---------------------3--3------------|
G|--------------------------------------------------2--2------------|
D|--5-4-0-2-2---2-4-4---4-5-5---5-5-4-0-9--9--9-7-5-0--0------------|
A|--------------------------------------5--5--5-5-5-0--0------------|
D|--------------------------------------5--5--5-5-5-0--0------------|



[Verse]

e|--------------------------------------------------------------------|
B|--3--------------------------------------------------3--3--3-3-3----|
G|--2--------------------------------------------------2--2--2-2-2----|
D|--0----7-7-7--9----12-12-12--11---7-7-7--9--9--9-7-5-0--0--0-0-0----|
A|--0----5-5-5--5----9--9--9---7----5-5-5--5--5--5-5-5-0--0--0-0-0----|
D|--0----4-4-4--5----9--9--9---7----4-4-4--5--5--5-5-5-0--0--0-0-0----|

e|-----------------------------------------------------------|
B|------3-------3-------3--------------3-------3-------3-----|
G|--2-2---2-0-0---0----------------2-2---2-0-0---0-----------|
D|------------------5-5---5--5-4-0-----------------5-5---5---|
A|-----------------------------------------------------------|
D|-----------------------------------------------------------|

e|------------------------------------------------------------------|
B|------------3-------3-------3---------------------3--3------------|
G|--------------------------------------------------2--2------------|
D|--5-4-0-2-2---2-4-4---4-5-5---5-5-4-0-9--9--9-7-5-0--0------------|
A|--------------------------------------5--5--5-5-5-0--0------------|
D|--------------------------------------5--5--5-5-5-0--0------------|



[Pre-Chorus]
                                                                                               
e|-------------------------------------------------------------------|
B|-------------------------------------------------------------------|
G|------------2---2---2-----2---2---2-----2---2---2-----2---2---2----|
D|--5-4-0---0---0---0-----0---0---0-----0---0---0-----0---0---0------|
A|--------2-------------0--------------------------------------------|
D|------------------------------------5-------------0----------------|

e|---------------------------------------------------------|
B|---------------------------------------------------------|
G|--2-2-2--2-2-2-------------------------------------------|
D|--2-2-2--2-2-2--7-7-7--7-7-7--9-9-9--9-9-9--9-9-9--------|
A|--0-0-0--0-0-0--5-5-5--5-5-5--5-5-5--5-5-5--5-5-5--------|
D|----------------4-4-4--4-4-4--5-5-5--5-5-5--5-5-5--------|
    x x    x x    x x    x x    x x    x x    x x


e|-------------------------------------------------------------------|
B|-------------------------------------------------------------------|
G|------------2---2---2-----2---2---2-----2---2---2-----2---2---2----|
D|--5-4-0---0---0---0-----0---0---0-----0---0---0-----0---0---0------|
A|--------2-------------0--------------------------------------------|
D|------------------------------------5-------------0----------------|


e|---------------------------------------------------------|
B|---------------------------------------------------------|
G|--2-2-2--2-2-2-------------------------------------------|
D|--2-2-2--2-2-2--7-7-7--7-7-7--9-9-9-9-9-9-9-9-9----------|
A|--0-0-0--0-0-0--5-5-5--5-5-5--5-5-5-5-5-5-5-5-5----------|
D|----------------4-4-4--4-4-4--5-5-5-5-5-5-5-5-5----------|
    x x    x x    x x    x x



[Chorus]
                                                                            (2x)
e|---------------------------------------------------------------------------------------|
B|-3-3-3-3-3---------------------------------------------------------------------3--3----|
G|-2-2-2-2-2---------------------------------------------------------------------2--2----|
D|-0-0-0-0-0--7-7--7-9-9-9-9-9-9-9--12-12--12-11-11-11-11-11-7-7--7-9--9--9-7-5--0--0----|  
A|-0-0-0-0-0--5-5--5-9-9-9-9-9-9-9--9--9---9--7--7--7--7--7--5-5--5-5--5--5-5-5--0--0----|
D|-0-0-0-0-0--4-4--4-5-5-5-5-5-5-5--9--9---9--7--7--7--7--7--4-4--4-5--5--5-5-5--0--0----|



[Solo]

e|-------------10---------9--------------------------------------------------------------------------------5-|
B|------------------------------------12-------------------------8---7---5---8---7---5----5-----------5------|
G|12-11-7-9b11----9b-7-9---9-7-6-7--12--12--14b-12-14--11-14----------------------------7---7-----7-----7----|
D|-------------------------------------------------------------7---7---7---7---7---7----------5-5---5-----5--|
A|-----------------------------------------------------------------------------------------------------------|
E|-----------------------------------------------------------------------------------------------------------|

e|-------------------------------------------------------------9--9--9-10-9----------10-7-5------------------|
B|-8-7---7---7---7-8-7--10--10--10-12-10--12---12--12--14-15----------------10---7-10-------8-7-8-7-5-7-5----|
G|-----7---7---7--------9--9---9----------12-12--12--12-------9--9--9----------7---------7-7-7-7-7-7-----7\--|
D|-----------------------------------------------------------------------------------------------------------|
A|-----------------------------------------------------------------------------------------------------------|
E|-----------------------------------------------------------------------------------------------------------|



[After Solo]

e|--------------------------------------------------------------------------------------------------|
B|--------------------------------------------------------------------------------------------------|
G|------2---2---2------2-------2------2---2---2-----2-------2------2---2---2-----2-------2--2~------|
D|-0--0---0---0---0--0---0---0------0---0---0-----0---0---0------0---0---0-----0---0---0----0~------|
A|------------------------------------------------------2-----0--------------0----------------------|
D|-------------------------4-----5--------------5------------------------------------4------5~------|



[Chorus]
                                                                            (2x)
e|---------------------------------------------------------------------------------------|
B|-3-3-3-3-3---------------------------------------------------------------------3--3----|
G|-2-2-2-2-2---------------------------------------------------------------------2--2----|
D|-0-0-0-0-0--7-7--7-9-9-9-9-9-9-9--12-12--12-11-11-11-11-11-7-7--7-9--9--9-7-5--0--0----|  
A|-0-0-0-0-0--5-5--5-9-9-9-9-9-9-9--9--9---9--7--7--7--7--7--5-5--5-5--5--5-5-5--0--0----|
D|-0-0-0-0-0--4-4--4-5-5-5-5-5-5-5--9--9---9--7--7--7--7--7--4-4--4-5--5--5-5-5--0--0----|



[Outro]
                                                      (2x)
e|-----------------------------------------------------------------|
B|------------3-------3-------3--------------3-------3-------3-----|
G|--------2-2---2-0-0---0----------------2-2---2-0-0---0-----------|
D|--5-4-0-----------------5-5---5--5-4-0-----------------5-5---5---|
A|-----------------------------------------------------------------|
D|-----------------------------------------------------------------|

e|-----------------------------------------------------------------|
B|------------3-------3-------3---------------------3--------------|
G|--------------------------------------------------2--------------|
D|--5-4-0-2-2---2-4-4---4-5-5---5-5-4-0-9--9--9-7-5-0--------------|
A|--------------------------------------5--5--5-5-5-0--------------|
D|--------------------------------------5--5--5-5-5-0--------------|



Have fun ;)
made by BILLYacbtTALENT (You Tube)
 
************************************

| x   Palme Mute
| b   Bend


************************************
Suggest correction
Creating personal tab
Creating personal tab
You can edit any tab online and save it as your Personal.

You can edit, replace or remove any tab part or add personal notes – all changes will be seen only by you.

Personal tabs can be accessed anytime from any device, even offline.
Learn more »
Give kudos to tab author, rate the tab!
1 2 3 4 5
comments
print report bad tab
guest
You may want to rate the tab now too:
select rating
Wanna post a correction for this tab? Suggest correction