Oops, an error
Loading. Please wait.

Lies Bass Tab

version 1
version 1

Whole song

Interactive

4,136 views 3 this week
1 commentread comment
1 2 3 4 5
excellent!
x 9
add to favorites
launch autoscroll
font size
0
reset
guitar tuner
Tab Pro tools
  • play this tab
  • loop segment
  • change instrument
  • show fretboard
  • metronome
Autoscroll
slow
fast
+/-
esc
set tempo
stop
Contributor
Song: Lies
Album: Billy Talent
Band: Billy Talent
Tabbed By: Masterbasser36


Intro
G|------------------------------------------------------|
D|------------------------------------------------------|
A|---------------3-3-----------------------3-3-2--0-0---|
D|--5-5-7--0-0--------0-2-2----5-5-7--0-0---------------|


Verse x2
G|--------------------------------------------------------------------------------------|
D|--------------------------------------------------------------------------------------|
A|-33333333-/77777777-55555555-3333333-----------------------33333333-------------------|
D|--------------------------------------5-22222222--00000000-----------2-2-2-2-2-2-2-2-|

End of 2nd Verse
G|-------------------------|
D|-------------------------|
A|-------------------------|
D|--2-2-2-2-2-2-2--5-2-0---|

Chorus x2
G|------------------------------------------------------|
D|------------------------------------------------------|
A|---------------3-3-----------------------3-3-2--0-0---|
D|--5-5-7--0-0--------0-2-2----5-5-7--0-0---------------|

Break
G|---------------------------------------------|
D|---------------------------------------------|
A|--333333--55--77777777--55555555--33333333---|
D|---------------------------------------------|

Verse
G|--------------------------------------------------------------------------------------|
D|--------------------------------------------------------------------------------------|
A|-33333333-/77777777-55555555-3333333-----------------------33333333-------------------|
D|--------------------------------------5-22222222--00000000-----------2-2-2-2-2-2-2-2-|

Chorus x4
G|------------------------------------------------------|
D|------------------------------------------------------|
A|---------------3-3-----------------------3-3-2--0-0---|
D|--5-5-7--0-0--------0-2-2----5-5-7--0-0---------------|

Bridge
G|----------------------------------------------------|
D|----------------------------------------------------|
A|--5-7-7--5-7-7--5-7-5--3--2-3--22222222--33333333---|
D|----------------------------------------------------|

Chorus x4
G|------------------------------------------------------|
D|------------------------------------------------------|
A|---------------3-3-----------------------3-3-2--0-0---|
D|--5-5-7--0-0--------0-2-2----5-5-7--0-0---------------|

And that's it!
I spent quite a bit of time on this one, so please rate!!!
Thank You.
comments
print report bad tab
1 comment total.
0 reply
bassistandpilot wrote on December 23 2006, 04:39 pm

really good...awsome song eh, i play the rift a bit different but i donno, i have a tendency to change things a bit around so ur probly right...peace

I want to post or [tab]
guest
You may want to rate the tab now too:
select rating
Please do not post tabs as comments. Select "correction" instead!