Oops, an error
Loading. Please wait.

Lies Chords

version 1
version 1

Whole song

Interactive

5,504 views 9 this week
2 commentsread comments
1 2 3 4 5
x 7
add to favorites
launch autoscroll
font size
0
reset
transpose
0
reset
simplify chords
display chords
guitar tuner
Autoscroll
slow
fast
+/-
esc
set tempo
stop
Help us to improve Ultimate-Guitar.com Take our survey!
×
Billy Talent
Lies
Billy Talent I
2003
Submitted by: paramore_fans@yahoo.com

This is 100% correct!!!

Key: G

Tuning: Standard EADGBe

chords used:
G -    320033
D -    xx0232
Am -   x02210
C -    x32010
Em -   022000
D/F# - 2x023x
Bm -   x24432


Intro: x2
      G         D         C       Em
e|---------|---------|-----0---|------|
B|-0---0-1-|-0-------|-----1-3-|-1--0-|
G|---------|-----2---|-----0---|-0--0-|
D|---------|---0---0-|---2-----|-2--2-|
A|---------|---------|-3-------|-2--2-|
E|---3-----|---------|---------|-0--0-|

      G         D         C       Am
e|---------|---------|---------|-0--0-|
B|-0---0-1-|-0-------|---------|-0--3-|
G|---------|-----2---|-----0-2-|-2--2-|
D|---------|---0---0-|---2-----|-2--0-|
A|---------|---------|-3-------|-0----|
E|---3-----|---------|---------|------|


Verse 1:
C
  Forced conversation (lies)
Em
  Hidden agenda (lies)
D
  You think we're
           C
stupid how dare you
Em
  The rug has not been pulled
D/F#
    Over our eyes you fool
C                Em--
We can see right through


Verse 2:
C
  Tip-toeing villain (lies)
Em
  Eyes in the ceiling (lies)
D
  Your false intentions
     C
have warn thin
Em
  But we've been in your
    D/F#
room    and in your closet too
C                Em--
We've got one on you


Chorus 1:
G            D
Lies make it better
C           Em
Lies are forever
G          D
Lies to go home to
C            Am
Lies to wake up to
G             D
Lies from the alter
C             Em
Lies make you falter
G              D
Lies keep your mouth fed
C              Am        C--Em--D--C-- (Bass Riff)
Lies till your death bed Lies


Verse 3:
C
  Inside an office (lies)
Em
  a fallen angel (lies)
D                        C
  A smiling Buddha with snake eyes
Em
  Creates the latest trends
D/F#
   And I just cant pretend
C                  Em--
Don't call me your friend
When all these


Chorus 2:
G            D
Lies make it better
C           Em
Lies are forever
G          D
Lies to go home to
C            Am
Lies to wake up to
G             D
Lies from the alter
C             Em
Lies make you falter
G              D
Lies keep your mouth fed
C              Am
Lies till your death bed


Chorus 3:
G                 D
Lies they make it better
C                Em
Lies they are forever
G          D
Lies to go home to
C            Am
Lies to wake up to
G             D
Lies from the alter
C                  Em
Lies they make you falter
G              D
Lies keep your mouth fed
C              Am        D-Em-D-Em-D-Em-D--D--C-Bm-D-
Lies till your death bed LIES!


Interlude: Bm--C--


Bridge:
D    Em   D    Em   D  Em   
D  C-Bm-D-
Lies will come back to hunt you
Bm               C
Bulletproof your limousine
D    Em   D    Em   D  Em   
D  C-Bm-D-
Lies will come back to haunt you
Bm            C
Hit and run a broken dream


Interlude:
      G         D         C       Em
e|---------|---------|-----0---|------|
B|-0---0-1-|-0-------|-----1-3-|-1--0-|
G|---------|-----2---|-----0---|-0--0-|
D|---------|---0---0-|---2-----|-2--2-|
A|---------|---------|-3-------|-2--2-|
E|---3-----|---------|---------|-0--0-|

      G         D         C       Am
e|---------|---------|---------|-0--0-|
B|-0---0-1-|-0-------|---------|-0--3-|
G|---------|-----2---|-----0-2-|-2--2-|
D|---------|---0---0-|---2-----|-2--0-|
A|---------|---------|-3-------|-0----|
E|---3-----|---------|---------|------|


(Repeat Chorus 2)


Chorus 4:
G                 D
Lies they make it better
C                Em
Lies they are forever
G          D
Lies to go home to
C            Am
Lies to wake up to
G             D
Lies from the alter
C                  Em
Lies they make you falter
G              D
Lies keep your mouth fed
C              Am        G(hold)
Lies till your death bed lies
Suggest correction
comments
print report bad tab
2 comments total.
0 reply
AlexB1227 10 Feb 01, 2014 09:25 PM

unfortunately, this tab is waaaay off. its in drop D, and has a few chords, not all chords

0 reply
niklas.engel.37 56 Sep 14, 2015 08:06 AM

As Alex already said, this tab is off, but it sounds really nice on acoustic!

guest
You may want to rate the tab now too:
select rating
Wanna post a correction for this tab? Suggest correction