Oops, an error
Loading. Please wait.

Lies Tab

version 1
version 1

Intro

Whole song

Interactive

6,248 views 1 this week
5 commentsread comments
1 2 3 4 5
accurate
x 7
add to favorites
launch autoscroll
font size
0
reset
how to read this tab
guitar tuner
Autoscroll
slow
fast
+/-
esc
set tempo
stop
Help us to improve Ultimate-Guitar.com Take our survey!
×
Author
Dropped D
w/ distortion

intro
E|--------------------0----------------------------------------
B|----------------------3--------------------------------------
G|4---4/5-4---2-------0---5---4--4---4/5-4---2-----------4---7\
D|------------------2-----2-2-2--------------------2-5-7-7-----
A|----------------3-------2-2-2------------------3-------------
D|--5--h7---0---0---------2-2-2----5--h7---0---0---------------

This was as close as I could get to the real thing. It's pretty accurate though.
Suggest correction
What's this?
You can suggest a correction to this tab. Community and Mods will review your correction and vote to approve or reject it.
comments
print report bad tab
5 comments total. Showing first comments.
0 reply
Colinawthnowena 154 wrote on March 4 2006, 09:44 pm

you know what you suck

0 reply
SlyBiscut 400 wrote on March 4 2006, 10:32 pm

First off, I tabbed this a year and a half ago, so I obviously didn't have as good an ear. Second of all, you have to suck pretty hard for it to not sound close to the record. I play it like this, and it sounds just like it. The tab is even lined up correctly so you know on what beat each note falls.

1 + 2 + 3 + 4 + |1 + 2 + 3 + 4 + |1 + 2 + 3 + 4 + |1 + 2 + 3 + 4 +
E|----------------|----0-----------|----------------|----------------
B|----------------|----1/3-1---0---|----------------|----------------
G|4---4/5-4---2---|----0-----------|4---4/5-4---2---|--------4---7\--
D|----------------|--2-----2-2-2---|----------------|--2-5/7-7-------
A|----------------|3-------2-2-2---|----------------|3---------------
D|--5--h7---0---0-|--------2-2-2---|--5--h7---0---0-|----------------

And don't post degrading comments on others' tabs when your's aren't so great, either (Your "I Want To Hear You Sad" tab is not even near accurate). I don't tab shit unless I know it's at least close to correct. And you know what? You can't punctuate or capitalize correctly.

Thank you for your constructive criticism.

0 reply
SlyBiscut 400 wrote on March 4 2006, 10:34 pm

First off, I tabbed this a year and a half ago, so I obviously didn't have as good an ear. Second of all, you have to suck pretty hard for it to not sound close to the record. I play it like this, and it sounds just like it. The tab is even lined up correctly so you know on what beat each note falls.

--1 + 2 + 3 + 4 + |1 + 2 + 3 + 4 + |1 + 2 + 3 + 4 + |1 + 2 + 3 + 4 +
E|----------------|----0-----------|----------------|----------------
B|----------------|----1/3-1---0---|----------------|----------------
G|4---4/5-4---2---|----0-----------|4---4/5-4---2---|--------4---7\--
D|----------------|--2-----2-2-2---|----------------|--2-5/7-7-------
A|----------------|3-------2-2-2---|----------------|3---------------
D|--5--h7---0---0-|--------2-2-2---|--5--h7---0---0-|----------------

And don't post degrading comments on others' tabs when your's aren't so great, either (Your "I Want To Hear You Sad" tab is not even near accurate). I don't tab shit unless I know it's at least close to correct. And you know what? You can't punctuate or capitalize correctly.

Thank you for your constructive criticism.

--The counts didn't match up with their corresponding notes the first time, so you can read the entire thing again.--

guest
You may want to rate the tab now too:
select rating
Please do not post tabs as comments. Select "correction" instead!