Oops, an error
Loading. Please wait.

Lies Tab

version 3
version 3

Whole song

Interactive

20,548 views 39 this week
3 commentsread comments
1 2 3 4 5
excellent!
x 7
add to favorites
launch autoscroll
font size
0
reset
how to read this tab
guitar tuner
Autoscroll
slow
fast
+/-
esc
set tempo
stop
Help us to improve Ultimate-Guitar.com Take our survey!
×
Author
Tuning
D A D G B E
Band - Billy Talent
Song - Lies

   This is my first tab but trust me is 100% correct you wont be dissapointed so enjoy. 
Rate Well


Played in drop D (DADGBe)

Intro

e|------------------------------------------0-----------------|
B|------------------------------------------1h3---------------|
G|---4-------4-/-5---4-------2--------------0-----5------4----|
D|---------------------------------------2-----------2---2----|
A|------------------------------------3--------------2---2----|
D|-------5-----/-7-------0------0--------------------2---2----|

e|--------------------------------------------------0---0---|
B|--------------------------------------------------0---3---|
G|---4-------4-/-5---4-------2--------------0h2-----2---2---|
D|---------------------------------------2----------2---0---|
A|------------------------------------3-------------0-------|
D|-------5-----/-7-------0------0---------------------------|
 (Keep your finger on the 5 and slide to the 7)

Verse
                                                           (1st time around)
e|-(0)-------0----0----0----0----0----------------------------|---------|
B|-(0)--5----7----5----8-8--7-7--5-5--5-5b-----5-5b-----5-5b--|---5-5b--|
G|-(0)--x----0----0----0----0----0----------------------------|---------|
D|-(2)--2----7----5----9----7----5----2-2------2-2------2-2---|---2-2---|
A|-(3)--2----5----3----7----5----3----2-2------2-2------2-2---|---2-2---|
D|------2-----------------------------2-2------2-2------2-2---|---2-2---|    (The chord 
brackets is the chord that is carried on from the chorus
but is played in second verse)

|-----------|
|-----------|
|-----------|
|--2-5-2-0--| (2nd time around in 1st verse but in 2nd verse play straight
|--2-5-2-0--|  away)
|--2-5-2-0--|

Chorus

e|-------------------------------------------------------|
B|-------------------------------------------------------|
G|---4-------4-/-5---4-----2-----5--5-/-7--5-----4-------|
D|---x-------x-/-x---0--0--0--0--5--5-/-7--2--2--2--2----|
A|---5-------5-/-7---0--0--0--0--3--3-/-5--2--2--2--2----|
D|---5-------5-/-7---0--0--0--0------------2--2--2--2----|
                                               (2nd Time)
e|-----------------------------------------0--0-|--0~--|
B|-----------------------------------------0--3-|--0~--|
G|---4-------4-/-5---4-----2-----0-0-0-2---2--2-|--0~--|
D|---x-------x-/-x---0--0--0--0--5-5-5-5---2--2-|--2~--|
A|---5-------5-/-7---0--0--0--0--3-3-3-3---0--0-|--3~--|
D|---5-------5-/-7---0--0--0--0-----------------|------|

Interlude

e|--------------------------------------------------------------------------|
B|-------8-8-----8-8-----8---7-5-3------------------------------------------|
G|-------0-0-----0-0-----0---0-0-0-----1111111111111111--1111111111111111---|
D|----0--9-9--0--9-9--0--9---7-5-4------9-9-9-9-9-9-9-9--1010101010101010---|
A|----0--7-7--0--7-7--0--7---5-3-2------9-9-9-9-9-9-9-9--1010101010101010---|
D|----0-------0-------0-----------------9-9-9-9-9-9-9-9--1010101010101010---|


End on

e|-----|
B|-----|
G|-----|
D|--5--|
A|--5--|
D|--5--|


Intro
Chorus
Verse x2
Chorus x2
Verse
Chorus x4
Interlude x4
Intro
Chorus x4


Legend

~ - Let ring
/  - Slide
x - Mute String
Suggest correction
What's this?
You can suggest a correction to this tab. Community and Mods will review your correction and vote to approve or reject it.
comments
print report bad tab
3 comments total.
0 reply
omidgamer 21 wrote on December 8 2008, 07:59 pm

this is pretty good but i dont think that the last part of the intro is right

0 reply
jakemo77 17 wrote on April 10 2012, 02:51 pm

sorry not 100%. intro is played on the D strings. not the d and g

0 reply
The Tempest 237 wrote on November 29 2014, 02:36 pm

Can be on either, it's the right note in the tab but you can play it on the D if you want.

guest
You may want to rate the tab now too:
select rating
Please do not post tabs as comments. Select "correction" instead!