Oops, an error
Loading. Please wait.

Line And Sinker Tab

version 1
version 1

Whole song

Interactive

8,933 views 6 this week
2 commentsread comments
1 2 3 4 5
x 8
add to favorites
launch autoscroll
font size
0
reset
how to read this tab
guitar tuner
Autoscroll
slow
fast
+/-
esc
set tempo
stop
Help us to improve Ultimate-Guitar.com Take our survey!
×
Author
Intro / Chorus:

E-------------------------
B-------------------------
G-------------------------
D----------22222----------  x1
A-44444444-00000----4-2-0-
D-44444444----------------

Part A:

E-0-0--0--------
B-2-2--2--------
G-2-2--2--------
D-000--x--------  x1
A------2----5-2-
D---------------

Part B:

E-------------------------0000000000000000-0000000000000000
B-------------------------2222222222222222-2222222222222222
G-------------------------2222222222222222-2222222222222222
D----------22222----------0000000000000000-xxxxxxxxxxxxxxxx
A-44444444-00000----4-2-0------------------2222222222222222
D-44444444-------------------------------------------------

Verse:

E-----0------0-------0------0-------0-0---0-0---0---0-0---0000---0--0--0--0-
B-----2------2-------2------2b------8-8---8-8---7---7-7---7777---7--7--7--7-
G----2------2-2-----2------2--------9-9---9-9---7---7-7---7777---9--9--9--9-
D----------------------------------------------------------------11-11-11-11
A--------2--------------0---------------------------------------------------
D-0--------------4----------------------------------------------------------

E-0-0-0-0--
B-7-7-7-7--
G-7-7-7-7--
D-9-9-9-9--  x4
A----------
D----------

Part C:

E----------------------0--0--0--------
B----------------------2--2--2--------
G----------------------2--2--2--------
D----------22222-------0--0--x--------
A-44444444-00000-4-2-0-------2---5--2-
D-44444444----------------------------

Bridge:

E-------------------
B-5--5--55---33---3-
G-------------------
D-------------------  x2
A-------------------
D-------------------

E-0-0---0-0-
B-8-8---7-7-
G-9-9---7-7-
D-----------  x4
A-----------
D-----------

End:

E-0-
B-2-
G-2-
D-0-
A---
D---

Order (this is very vague so please be prepared tochop and change it a bit):

A: x1
B: x2
Verse: x4
Pre-Chorus: x4
A: x1
Intro: x2
B: x2
Verse: x4
Pre-Chorus: x4
A: x1
Intro: x1
B: x2
C: x1
Bridge: x1

...and then some more but I really had to hurry so I didnt have the time to
finish it. Sorry :( it's simple anyway so I'm sure you can do it for yourselves :P

   This Billy Talent song was tabbed by Sam for Branners tee hee!!!
Suggest correction
comments
print report bad tab
2 comments total.
0 reply
Devilar 10 Dec 17, 2005 06:21 PM

this is ok

0 reply
billy_talentii 10 Jun 14, 2006 06:21 PM

bridge is waaaayyy off

guest
You may want to rate the tab now too:
select rating
Wanna post a correction for this tab? Suggest correction