Oops, an error
Loading. Please wait.

Line And Sinker Bass Tab

version 3
version 3

Whole song

Interactive

5,194 views 15 this week
1 commentread comment
1 2 3 4 5
excellent!
x 5
add to favorites
launch autoscroll
font size
0
reset
guitar tuner
Autoscroll
slow
fast
+/-
esc
set tempo
stop
Help us to improve Ultimate-Guitar.com Take our survey!
×
Author
Difficulty
Tuning
novice
D A D G B E
Band: Billy Talent
Song: Line And Sinker
Album: Billy Talent
Tabbed by: choke383
Drop D Tuning: GDAD

0:03
G|------------------|
D|------------------|
A|--------00000420--|
D|44444444----------|

G|----------------------------------|
D|----------------------------------|
A|5---55--2---22----------00000420--|
D|----------------44444444----------|

G|----------------------------------|
D|----------------------------------|
A|5555555522222222--------00000420--|
D|----------------44444444----------|x2


0:22
G|------------------------------------------------------------------|
D|------------------------------------------------------------------|
A|5-5--4h5-2-2--------------------5-5--4h5-2-2------------[0-0]-----|
D|----------------4-4--4h5-7-7--------------------4-4--4/5-7-7-4-2--|x2


0:45
G|-----------------------------------|
D|-----------------------------------|
A|----5----------5-44-44-22-2-45420--|
D|22-5-5-00-0-242--------------------|x4


1:07
G|----------------------------------|
D|----------------------------------|
A|5---55--2---22----------00000420--|
D|----------------44444444----------|x2

G|----------------------------------|
D|----------------------------------|
A|5555555522222222--------00000420--|
D|----------------44444444----------|x2


1:30
G|------------------------------------------------------------------|
D|------------------------------------------------------------------|
A|5-5--4h5-2-2--------------------5-5--4h5-2-2------------[0-0]-----|
D|----------------4-4--4h5-7-7--------------------4-4--4/5-7-7-4-2--|x2


1:52
G|-----------------------------------|
D|-----------------------------------|
A|----5----------5-44-44-22-2-45420--|
D|22-5-5-00-0-242--------------------|x4


2:15
G|----------------------------------|
D|----------------------------------|
A|5---55--2---22----------00000420--|
D|----------------44444444----------|x2

G|----------------------------------|
D|----------------------------------|
A|5555555522222222--------00000420--|
D|----------------44444444----------|x2


2:37
G|-----------------------------------|
D|--------------------2--------------|
A|----5----------5544--5422-2-45420--|
D|22-5-5-00-0-242--------------------|x6


3:14
G|------------------|
D|------------------|
A|--------00000420--|
D|44444444----------|

G|----------------------------------|
D|----------------------------------|
A|5555555522222222--------00000420--|
D|----------------44444444----------|x2

G|-----------------------------------|
D|-----------------------------------|
A|5555555522222222--------00000420---|
D|----------------44444444--------0--|



Any comments, questions or jokes send to style444@hotmail.com
Suggest correction
comments
print report bad tab
1 comment total.
0 reply
KILO6 10 wrote on August 21 2009, 07:19 pm

dude nice tab. ugh that stupid little rif like thing at 2:37 is pissin me off though! my fingers, they bleed. lol nice work!

guest
You may want to rate the tab now too:
select rating
Please do not post tabs as comments. Select "correction" instead!