Oops, an error
Loading. Please wait.

Line And Sinker Tab

version 3
version 3

Whole song

Interactive

8,964 views 1 this week
6 commentsread comments
1 2 3 4 5
accurate
x 6
add to favorites
launch autoscroll
font size
0
reset
how to read this tab
guitar tuner
Tab Pro tools
  • play this tab
  • loop segment
  • change instrument
  • show fretboard
  • metronome
Autoscroll
slow
fast
+/-
esc
set tempo
stop
Contributor
Intro / Chorus:

E-------------------------|
B-------------------------|
G-------------------------|
D----------22222----------|  x1
A-44444444-00000----4-2-0-|
D-44444444----------------|

Part A:

E-0-0--0--------|
B-2-2--2--------|
G-2-2--2--------|
D-000--x--------|  x1
A------2----5-2-|
D---------------|

Part B:

E-------------------------0000000000000000-0000000000000000-|
B-------------------------2222222222222222-2222222222222222-|
G-------------------------2222222222222222-2222222222222222-|
D----------22222----------0000000000000000-xxxxxxxxxxxxxxxx-|
A-44444444-00000----4-2-0------------------2222222222222222-|
D-44444444--------------------------------------------------|

Verse:

E-----0------0-------0------0-------0-0---0-0---0---0-0---0000---0--0--0--0--|
B-----2------2-------2------2b------8-8---8-8---7---7-7---7777---7--7--7--7--|
G----2------2-2-----2------2--------9-9---9-9---7---7-7---7777---9--9--9--9--|
D----------------------------------------------------------------11-11-11-11-|
A--------2--------------0----------------------------------------------------|
D-0--------------4-----------------------------------------------------------|

E-0-0-0-0--|
B-7-7-7-7--|
G-7-7-7-7--|
D-9-9-9-9--|  x4
A----------|
D----------|

Part C:

E----------------------0--0--0--------|
B----------------------2--2--2--------|
G----------------------2--2--2--------|
D----------22222-------0--0--x--------|
A-44444444-00000-4-2-0-------2---5--2-|
D-44444444----------------------------|

Bridge:

E-------------------|
B-5--5--55---33---3-|
G-------------------|
D-------------------|  x2
A-------------------|
D-------------------|

E-0-0---0-0-|
B-8-8---7-7-|
G-9-9---7-7-|
D-----------|  x4
A-----------|
D-----------|

End:

E-0-
B-2-
G-2-
D-0-
A---
D---

Order (this is very vague so please be prepared tochop and change it a bit):

A: x1
B: x2
Verse: x4
Pre-Chorus: x4
A: x1
Intro: x2
B: x2
Verse: x4
Pre-Chorus: x4
A: x1
Intro: x1
B: x2
C: x1
Bridge: x1

...and then some more but I really had to hurry so I didnt have the time to
finish it. Sorry :( it's simple anyway so I'm sure you can do it for yourselves :P

   This Billy Talent song was tabbed by Sam for Branners tee hee!!!
comments
print report bad tab
6 comments total. Showing first comments.
0 reply
Scott5686 wrote on December 11 2006, 09:56 am

Do you have a Billy Talent tab book or something? This is the 3rd song of theirs I've got from you and you haven't let me down yet. Whatever you're doing keep it up.

0 reply
philjay wrote on February 7 2007, 11:52 am

its not completely right.

-2 reply
Tan_the_man wrote on May 16 2007, 08:01 pm

The verse is wrong. Ian uses the structure of a Bm7sus chord and just uses different bass notes. the chords should look something like this...

e--2---2---2---2----------------------------
B--5---5---5---5----------------------------
G--2---2---2---2----------------------------
D--4---4---4---4----------------------------
A----------0---2----------------------------
D--4---0------------------------------------

I am very confident and positive that this is the way the verse is correctly played.

I want to post or [tab]
guest
You may want to rate the tab now too:
select rating
Please do not post tabs as comments. Select "correction" instead!