Oops, an error
Loading. Please wait.

Living In The Shadows Bass Tab

version 1
version 1

Whole song

Interactive

2,503 views 3 this week
no commentswrite comment
1 2 3 4 5
x 3
add to favorites
launch autoscroll
font size
0
reset
guitar tuner
Autoscroll
slow
fast
+/-
esc
set tempo
stop
Help us to improve Ultimate-Guitar.com Take our survey!
×
Song: Living In The Shadows
Album: Billy Talent
Band: Billy Talent
Tabbed By: Masterbasser36


Intro I                             x2
G|---------------------------------|
D|---------------------------------|
A|---no bass-----------------------|
D|----------------88-0h7-7-0h7-7---|


Intro II                                      x2
G|-------------------------------------------|
D|-------------------------------------------|
A|-------------------------------------------|
D|-33333333-22222222-000000-88-0h7-7-0h7-7---|


Verse                                                    x2
G|---------------------------||-------------------------|
D|---------------------------||-3~-2~-------------------|
A|-------5~------------------||-------5~----------------|
D|-3~-2~----88-0h7-7-0h7-7---||----------88-0h7-7-0h7---|

G|-----------------------------------------|
D|-33333333-22222222-----------------------|
A|-------------------555555----------------|
D|--------------------------88-0h7-7-0h7---|


Chorus                                     x4
G|-------------------------------------------|
D|-------------------------------------------|
A|-------------------------------------------|
D|-33333333-55555555-888888-0h7-7-0h7-7------|


Intro II x2
Verse    x1
Chorus   x4


Bridge
G|--------------------------------------------------------------------------|
D|-------------3-2-0-------------2-0----------------------------------------|
A|-55-55-55-555------33-33-33-333----3--------------0-----11-11-11-11111113-| x3
D|--------------------------------------33-33-33-333---5-3------------------|


Intro I  x2
Intro II x2
Chorus   x8

That's it folks, hope you enjoy!
Please Rate, and comment if you find any mistakes.
Suggest correction
Give kudos to tab author, rate the tab!
1 2 3 4 5
comments
print report bad tab
guest
You may want to rate the tab now too:
select rating
Wanna post a correction for this tab? Suggest correction