Oops, an error
Loading. Please wait.

Living In The Shadows Tab

version 1
version 1

Whole song

Interactive

9,159 views 18 this week
no commentswrite comment
1 2 3 4 5
x 7
add to favorites
launch autoscroll
font size
0
reset
how to read this tab
guitar tuner
Autoscroll
slow
fast
+/-
esc
set tempo
stop
Help us to improve Ultimate-Guitar.com Take our survey!
×
Author
Tuning
D A D G B E
Song: Living in the shadows
Tunning: drop from E to D (D A D G B E)
A bit different then other tabs on this site.

Intro
|-------------------------------------------------------------------------------|
|--10------------8--------------6-----------------------------------------------|
|--7-----(8x)----6-----(8x)-----7-----(8x)--------------------------------------|
|--x-------------x--------------7--------------8-5-7-3-3-3-3--------------------|
|--8-------------7--------------5--------------8-5-7-0-0-0-0--------------------|
|----------------------------------------------8-5-7-0-0-0-0--------------------|

|--10------------9--------------5-----------------------------------------------|
|--10------------8--------------6-----------------------------------------------|
|--7-----(8x)----6-----(8x)-----7-----(8x)--------------------------------------|
|--x-------------x--------------7--------------8-5-7-3-3-3-3--------------------|
|--8-------------7--------------5--------------8-5-7-0-0-0-0--------------------|
|----------------------------------------------8-5-7-0-0-0-0--------------------|

Verse
|---------------------------------------------------------------------------|
|--10~-----------8~-------------6~------------------------------------------|
|--7~------------6~-------------7~------------------------------------------|
|--x-------------x--------------7~--------------8-5-7-3-3-0-3-3-------------|
|--8~------------7~-------------5~--------------8-5-7-0-0-0-0-0-------------|
|-----------------------------------------------8-5-7-0-0-0-0-0-------------|

|--10~-----------9~-------------5~------------------------------------------|
|--10~-----------8~-------------6~------------------------------------------|
|--7~------------6~-------------7~------------------------------------------|
|--x-------------x--------------7~-------------8-5-7-3-3-0-3-3--------------|
|--8~------------7~-------------5~-------------8-5-7-0-0-0-0-0--------------|
|----------------------------------------------8-5-7-0-0-0-0-0--------------|

Chorus
|---------------------------------------------------------------------------|
|---------------------------------------------------------------------------|
|---------------------------------------------------------------------------|
|--33333333-55555555-888888-5-7-3-3-0-3-3-----------------------------------|
|--33333333-55555555-888888-5-7-0-0-0-0-0-----------------------------------|
|--33333333-55555555-888888-5-7-0-0-0-0-0-----------------------------------|

Bridge
PART A
|--55-55-55-5555555---33-33-33-3333333----------------------11-11-11-1111111-----|
|--66-66-66-6666666---55-55-55-5555555---66-66-66-6666666--33-33-33-3333333------|
|--77-77-77-7777777---33-33-33-3333333---55-55-55-5555555--33-33-33-3333333------|
|--00-00-00-0000000---55-55-55-5555555---33-33-33-3333333------------------------|
|----------------------------------------33-33-33-3333333------------------------|
|----------------------------------------33-33-33-3333333------------------------|

PART B
|--55-55-55-5555555---33-33-33-3333333----------------------11-11-11-1111111----|
|--66-66-66-6666666---55-55-55-5555555---66-66-66-6666666---33-33-33-3333333----|
|--77-77-77-7777777---33-33-33-3333333---55-55-55-5555555---33-33-33-3333333----|
|--77-77-77-7777777---55-55-55-5555555---33-33-33-3333333---33-33-33-3333333----|
|--55-55-55-5555555---33-33-33-3333333---33-33-33-3333333---11-11-11-1111111----|
|--00-00-00-0000000---------------------33-33-33-3333333------------------------|
Outro
|---------------------------------------|
|---------------------------------------|
|---------------------------------------|
|--33333333-55555555-888888-5-7-0-0-0-0-|
|--33333333-55555555-888888-5-7-0-0-0-0-|
|--33333333-55555555-888888-5-7-0-0-0-0-|


Order!

Intro	        x2
Verse		x2
Chorus	 	x4
Intro	        x1
Verse		x2
Chorus		x4
Bridge Pt. A	x2
Bridge Pt. B	x2
Intro	        x2
Chorus		x7
Outro		x1
Suggest correction
comments
print report bad tab
guest
You may want to rate the tab now too:
select rating
Wanna post a correction for this tab? Suggest correction