Oops, an error
Loading. Please wait.

Living In The Shadows Bass Tab

version 2
version 2

Whole song

Interactive

336 views 6 this week
no commentswrite comment
1 2 3 4 5
3 more votes to show rating
add to favorites
launch autoscroll
font size
0
reset
guitar tuner
Autoscroll
slow
fast
+/-
esc
set tempo
stop
Help us to improve Ultimate-Guitar.com Take our survey!
×
Author
Difficulty
Tuning
novice
D A D G B E
Band: Billy Talent
Song: Living In The Shadows
Album: Billy Talent
Tabbed by: choke383
Drop D Tuning: GDAD


G|--------------------------------------------------------------------|
D|--------------------------------------------------------------------|
A|--------------------------------------------------------------------|
D|----------------------8570-0-0-0-----------------------8570-07-0-0--|


G|--------------------------------------------------------------------|
D|--------------------------------------------------------------------|
A|----------------555555---------------------------555555-------------|
D|3333333322222222------8570-0-0-0-3333333322222222------8570-07-0-0--|


0:19
G|--------------------------------------------------------------------|
D|--------------------------------------------------------------------|
A|----------------5~---------------8~------7~------5~-----------------|
D|3~------2~------------8570-0-0-0-----------------------8570-0-0-0---|

G|--------------------------------------------------------------------|
D|--------------------------------------------------------------------|
A|----------------5~---------------8888888877777777555555-------------|
D|3~------2~------------8570-0-0-0-----------------------8570-07-0-0--|


0:39
G|------------------------------------|
D|------------------------------------|
A|------------------------------------|
D|3333333355555555--8888887-0-07-0-0--|x4


0:58
G|--------------------------------------------------------------------|
D|--------------------------------------------------------------------|
A|----------------555555---------------------------555555-------------|
D|3333333322222222------8570-0-0-0-3333333322222222------8570-07-0-0--|


1:07
G|--------------------------------------------------------------------|
D|--------------------------------------------------------------------|
A|----------------5~---------------8~------7~------5~-----------------|
D|3~------2~------------8570-0-0-0-----------------------8570-0-0-0---|

G|--------------------------------------------------------------------|
D|--------------------------------------------------------------------|
A|----------------5~---------------8888888877777777555555-------------|
D|3~------2~------------8570-0-0-0-----------------------8570-07-0-0--|


1:27
G|------------------------------------|
D|------------------------------------|
A|------------------------------------|
D|3333333355555555--8888887-0-07-0-0--|x4


1:46
G|------------------------------------------------------------------|
D|----------------------------2-------------------------------------|
A|55-55-55-555875-33-33-33-333-53-------------0---11-11-11-1113333--|
D|--------------------------------33-33-33-333-53-------------------|x2

G|----------------------------------------------------------------------|
D|----------------------------2-----------------------------------------|
A|55-55-55-555875-33-33-33-333-53-------------0---11-11-11-1113333------|
D|--------------------------------33-33-33-333-53-------------------3\--|


2:15                    (2:18)
G|--------------------------------------------------------------------|
D|--------------------------------------------------------------------|
A|--------------------------------------------------------------------|
D|----------------------8570-0-0-0-----------------------8570-07-0-0--|


G|--------------------------------------------------------------------|
D|--------------------------------------------------------------------|
A|----------------555555---------------------------555555-------------|
D|3333333322222222------8570-0-0-0-3333333322222222------8570-07-0-0--|


2:34
G|------------------------------------|
D|------------------------------------|
A|------------------------------------|
D|3333333355555555--8888887-0-07-0-0--|x4


2:53
G|-----------------------------------|
D|--------55555555--8888887-0-0-0-0--|
A|88888888---------------------------|
D|-----------------------------------|x3

G|---------------------------------|
D|--------55555555--8888887-0-0-0--|
A|88888888-------------------------|
D|---------------------------------|



The one thing I'm not so sure is this riff
G|------------------------------------|
D|------------------------------------|
A|------------------------------------|
D|3333333355555555--8888887-0-07-0-0--|
that is maybe like this
G|-----------------------------------|
D|------------------8888887-0-0-0-0--|
A|-----------------------------------|
D|3333333355555555-------------------|


Any comments, questions or jokes send to style444@hotmail.com
Suggest correction
Give kudos to tab author, rate the tab!
1 2 3 4 5
comments
print report bad tab
guest
You may want to rate the tab now too:
select rating
Wanna post a correction for this tab? Suggest correction