Oops, an error
Loading. Please wait.

Living In The Shadows Tab

version 2
version 2

Whole song

Interactive

935 views 1 this week
no commentswrite comment
1 2 3 4 5
1 last vote to show rating
add to favorites
launch autoscroll
font size
0
reset
how to read this tab
guitar tuner
Autoscroll
slow
fast
+/-
esc
set tempo
stop
Help us to improve Ultimate-Guitar.com Take our survey!
×
Author
Tuning
D A D G B E
Billy Talent - Living in the Shadows

tuning: Drop D

tabbed by: Tan_the_man

This is the first tab I have tried posting.  This is a great song and I am 100% sure its 
Please rate and if u have any suggestions and please comment. thanks.


  Intro:

    Dm/F     E*7      Dm
e|-----------------------------------------------------------|
B|--10-------8--------6--------------------------------------|
G|--7--------6--------7--------------------------------------|
D|--7--(x8)--8--(x8)--7--(x8)--8-5-7-------------------------|
A|--8--------7--------5--------8-5-7--8-8-8-8----------------|
D|-----------------------------8-5-7--0-0-0-0----------------|

    Dm/F     E*7      Dm
e|--10-------------------------------------------------------|
B|--10-------8--------6--------------------------------------|
G|--7--------6--------7--------------------------------------|
D|--7--(x8)--8--(x8)--7--(x8)--8-5-7----7--------------------|
A|--8--------7--------5--------8-5-7--8-7-8-8----------------|
D|-----------------------------8-5-7--0-7-0-0----------------|

  Verse:

    Dm/F     E*7      Dm
e|-(10)------------------------------------------------------|\||
B|--10-------8--------6----------------------------------------||
G|--7--------6--------7----------------------------------------||
D|--7--------8--------7----8-5-7--------------8-5-7----7-------||x3
A|--8--------7--------5----8-5-7-8-8-8-8--or--8-5-7--8-7-8-8---||
D|-------------------------8-5-7-0-0-0-0------8-5-7--0-7-0-0---||

    Dm/F     E*7      Dm
e|--10-------------------------------------------------------|
B|--10-------8--------6--------------------------------------|
G|--7--------6--------7--------------------------------------|
D|--7--(x8)--8--(x8)--7--(x8)--8-5-7----7--------------------|
A|--8--------7--------5--------8-5-7--8-7-8-8----------------|
D|-----------------------------8-5-7--0-7-0-0----------------|


  Chorus:
   F5               G5               Bb5              D5
e|----------------------------------------------------------------|
B|----------------------------------------------------------------|
G|----------------------------------------------------------------|
D|-3-3-3-3-3-3-3-3--5-5-5-5-5-5-5-5--8-8-8-8-8-8-8-8--0--0--0--0--|
A|-3-3-3-3-3-3-3-3--5-5-5-5-5-5-5-5--8-8-8-8-8-8-8-8--0--0--0--0--|
D|-3-3-3-3-3-3-3-3--5-5-5-5-5-5-5-5--8-8-8-8-8-8-8-8--0--0--0--0--|


  Bridge:
    D/9                           C7
e|--5-5--5-5--5-5--5-5-5-5-5-5-5--3-3--3-3--3-3--3-3-3-3-3-3-3----|
B|--5-5--5-5--5-5--5-5-5-5-5-5-5--5-5--5-5--5-5--5-5-5-5-5-5-5----|
G|--7-7--7-7--7-7--7-7-7-7-7-7-7--3-3--3-3--3-3--3-3-3-3-3-3-3----|
D|--7-7--7-7--7-7--7-7-7-7-7-7-7--5-5--5-5--5-5--5-5-5-5-5-5-5----|
A|--5-5--5-5--5-5--5-5-5-5-5-5-5--3-3--3-3--3-3--3-3-3-3-3-3-3----|
D|----------------------------------------------------------------|

    F7                              Bb7
e|--8-8--8-8--8-8---8-8-8-8-8-8-8---1010-1010-1010-10101010101010-|
B|--1010-1010-1010--10101010101010--1010-1010-1010-10101010101010-|
G|--9-9--9-9--9-9---9-9-9-9-9-9-9---1010-1010-1010-10101010101010-|
D|--1010-1010-1010--10101010101010--8-8--8-8--8-8--8-8-8-8-8-8-8--|
A|--8-8--8-8--8-8---8-8-8-8-8-8-8---------------------------------|
D|----------------------------------------------------------------|

Intro  x2
Verse  x1
Chorus x4
Intro  x1
Verse  x1
Chorus x4
Bridge x3
Intro  x2
Chorus x8

The End
| /  slide up
| \  slide down
| h  hammer-on
| p  pull-off
| ~  vibrato
| +  harmonic
| x  Mute note
==========================================================================
Suggest correction
Give kudos to tab author, rate the tab!
1 2 3 4 5
comments
print report bad tab
guest
You may want to rate the tab now too:
select rating
Wanna post a correction for this tab? Suggest correction