Oops, an error
Loading. Please wait.

Living In The Shadows tab

version 4
version 4

Whole song

Interactive

11,639 views 6 this week
5 commentsread comments
1 2 3 4 5
x 16
add to favorites
×
Save as Personal and add changes to this tab that will be seen only by you. Learn more ›
×
You can save this tab as Personal to edit and correct it or add notes. All changes will be seen only by you. Learn more »
launch autoscroll
font size
0
reset
how to read this tab
guitar tuner
edit
Autoscroll
slow
fast
+/-
esc
set tempo
stop
Author
----------------------------------------------------------------------------
                    Living In The Shadows - Billy Talent
----------------------------------------------------------------------------
Tabbed by: Stumaster18
Email:???
Tuning: Drop D (D A D G B e)

I hope you enjoy my work, cause this is an awesome song. Please rattte!

Intro: Play this through twice.
e|------------------------------------------------------------------------|
B|-10-10-10-10-10-10-10-10---8-8-8-8-8-8-8-8--6-6-6-6-6-6-----------------|
G|--7--7--7--7--7--7--7--7---6-6-6-6-6-6-6-6--4-4-4-4-4-4-----------------|
D|--x--x--x--x--x--x--x--x---x-x-x-x-x-x-x-x--x-x-x-x-x-x--8-5-7--0-0-0-0-|
A|--8--8--8--8--8--8--8--8---7-7-7-7-7-7-7-7--5-5-5-5-5-5--8-5-7--0-0-0-0-|
D|---------------------------------------------------------8-5-7--0-0-0-0-|

e|-10-10-10-10-10-10-10-10------------------------------------------------|
B|-10-10-10-10-10-10-10-10---8-8-8-8-8-8-8-8--6-6-6-6-6-6-----------------|
G|--7--7--7--7--7--7--7--7---6-6-6-6-6-6-6-6--4-4-4-4-4-4-----------------|
D|--x--x--x--x--x--x--x--x---x-x-x-x-x-x-x-x--x-x-x-x-x-x--8-5-7--0-0-0-0-|
A|--8--8--8--8--8--8--8--8---7-7-7-7-7-7-7-7--5-5-5-5-5-5--8-5-7--0-0-0-0-|
D|---------------------------------------------------------8-5-7--0-0-0-0-|

1st Verse:
e|-------------------------------|
B|-10~---8~---6~-----------------| 
                

            
            
Suggest correction
Creating personal tab
Creating personal tab
You can edit any tab online and save it as your Personal.

You can edit, replace or remove any tab part or add personal notes – all changes will be seen only by you.

Personal tabs can be accessed anytime from any device, even offline.
Learn more »
comments
print report bad tab
5 comments total. Showing first comments.
0 reply
Zuka 403 Mar 11, 2006 09:02 AM

Very good. But, like every single Living in the Shadows tab, the interlude is wrong wrong wrong. Am I the only one who knows it?

0 reply
Tan_the_man 31 Jul 13, 2006 07:20 PM

I'm 100% sure the intro is like this...

-------------------5-------------------------
-10-------8--------6-------------------------
-7--x(8)--6--x(8)--7--x(8)-------------------
-7--------8--------7---------8-5-7-----------
-8--------7--------5---------8-5-7--8-8-8-8--
-----------------------------8-5-7--0-0-0-0--


-10----------------5---------------------------
-10-------8--------6---------------------------
-7--x(8)--6--x(8)--7--x(8)---------------------
-7--------8--------7---------8-5-7------7------
-8--------7--------5---------8-5-7--8-8-7-8-8--
-----------------------------8-5-7--0-0-7-0-0--

and the verse is like the intro except you just let the first 3 chords ring instead of strumming them.

+1 reply
First_fret 20 Jul 19, 2006 12:55 PM

uh, zuka if u know the interlude u mind telling us?

guest
You may want to rate the tab now too:
select rating
Wanna post a correction for this tab? Suggest correction