Oops, an error
Loading. Please wait.

Louder Than The Dj Bass Tab

version 1
version 1

Whole song

Interactive

46 views 46 this week
no commentswrite comment
1 2 3 4 5
1 last vote to show rating
add to favorites
launch autoscroll
font size
0
reset
guitar tuner
Autoscroll
slow
fast
+/-
esc
set tempo
stop
Help us to improve Ultimate-Guitar.com Take our survey!
×
Author
Difficulty
Tuning
novice
D A D G B E
[Intro/Chorus]

G|---------------------------------------------------------------------------|
D|--------------------------------------------------------5-5-3-3------------|
A|-4/-5-5-5-4/-5-5-5-4/-5-5-5-5-8-------------7-7-8-8-------------5-3--------| x2
D|--------------------------------3-5-7-7-7-7---------5-5--------------------|


[Verse]

G|---------------------------------------------------------------------------
D|---------------------------------------------------------------------------
A|-4-5-5-5-5-5-5-5-5-5-5-5-5-5-----------------------------------------------
D|-----------------------------7-7-7-7-7-7-7-7-5-5-5-5-5-5-5-5---------------     
                                                                                   
G|---------------------------------------------------------------------------|     
D|-------------------------------------------------5-5-3-3-------------------|     
A|-4-5-5-5-5-5-5-5-5-5-5-5-5-5-----------------------------5-3---------------| x2
D|-----------------------------7-7-7-7-7-7-7-7-5-5---------------------------|


[Intro/Chorus]

G|---------------------------------------------------------------------------|
D|--------------------------------------------------------5-5-3-3------------|
A|-4/-5-5-5-4/-5-5-5-4/-5-5-5-5-8-------------7-7-8-8-------------5-3--------| x2
D|--------------------------------3-5-7-7-7-7---------5-5--------------------|

G|---------------------------------------------------------------------------|
D|---------------------------------------------------------------------------|
A|-3--5-6-6-6-6-6-------------3--5-6-6-6-6-------------3~--------------------|
D|----------------8-7-7-7-7-7--------------8-7-7-5-3-5-----------------------|


[Verse]

G|---------------------------------------------------------------------------
D|---------------------------------------------------------------------------
A|-4-5-5-5-5-5-5-5-5-5-5-5-5-5-----------------------------------------------
D|-----------------------------7-7-7-7-7-7-7-7-5-5-5-5-5-5-5-5---------------     
                                                                                   
G|---------------------------------------------------------------------------|     
D|-------------------------------------------------5-5-3-3-------------------|     
A|-4-5-5-5-5-5-5-5-5-5-5-5-5-5-----------------------------5-3---------------| x2
D|-----------------------------7-7-7-7-7-7-7-7-5-5---------------------------|


[Intro/Chorus]

G|---------------------------------------------------------------------------|
D|--------------------------------------------------------5-5-3-3------------|
A|-4/-5-5-5-4/-5-5-5-4/-5-5-5-5-8-------------7-7-8-8-------------5-3--------| x4
D|--------------------------------3-5-7-7-7-7---------5-5--------------------|

G|---------------------------------------------------------------------------|
D|---------------------------------------------------------------------------|
A|-3--5-6-6-6-6-6-------------3--5-6-6-6-6-----------------------------------| 
D|----------------8-7-7-7-7-7--------------8-7-7-7-7-7-----------------------|

G|---------------------------------------------------------------------------|
D|---------------------------------------------------------------------------|
A|-3--5-6-6-6-6-6-------------3--5-6-6-6-6-------------3~--------------------|
D|----------------8-7-7-7-7-7--------------8-7-7-5-3-5-----------------------|


[Guitar Solo]

G|---------------------------------------------------------------------------|
D|--------------------------------------------------------5-5-3-3------------|
A|-4/-5-5-5-4/-5-5-5-4/-5-5-5-5-8-------------7-7-8-8-------------5-3--------| x2
D|--------------------------------3-5-7-7-7-7---------5-5--------------------|

G|---------------------------------------------------------------------------|
D|---------------------------------------------------------------------------|
A|-3--5-6-6-6-6-6-------------3--5-6-6-6-6-----------------------------------| 
D|----------------8-7-7-7-7-7--------------8-7-7-7-7-7-----------------------|

G|---------------------------------------------------------------------------|
D|---------------------------------------------------------------------------|
A|-3--5-6-6-6-6-6-------------3--5-6-6-6-6-------------3~-5------------------|
D|----------------8-7-7-7-7-7--------------8-7-7-5-3-5-----------------------|


[Bridge]

G|---------------------------------------------------------------------------|
D|--------------------------------------------------------5-5-3-3------------|
A|-4/-5-5-5-4/-5-5-5-4/-5-5-5-5-8-------------7-7-8-8-------------5-3--------| x2
D|--------------------------------3-5-7-7-7-7---------5-5--------------------|


[Intro/Chorus]

G|---------------------------------------------------------------------------|
D|--------------------------------------------------------5-5-3-3------------|
A|-4/-5-5-5-4/-5-5-5-4/-5-5-5-5-8-------------7-7-8-8-------------5-3--------| x4
D|--------------------------------3-5-7-7-7-7---------5-5--------------------|

G|---------------------------------------------------------------------------|
D|---------------------------------------------------------------------------|
A|-3--5-6-6-6-6-6-------------3--5-6-6-6-6-----------------------------------| 
D|----------------8-7-7-7-7-7--------------8-7-7-7-7-7-----------------------|

G|---------------------------------------------------------------------------|
D|---------------------------------------------------------------------------|
A|-3--5-6-6-6-6-6-------------3--5-6-6-6-6-------------3---------------------|
D|----------------8-7-7-7-7-7--------------8-7-7-5-3-5----0~-----------------|


************************************

| /   Slide up
| ~   Vibrato

************************************
Suggest correction
Give kudos to tab author, rate the tab!
1 2 3 4 5
comments
print report bad tab
guest
You may want to rate the tab now too:
select rating
Wanna post a correction for this tab? Suggest correction