Oops, an error
Loading. Please wait.

Love Was Still Around Bass Tab

version 1
version 1

Whole song

Interactive

2,017 views 6 this week
1 commentread comment
1 2 3 4 5
x 4
add to favorites
launch autoscroll
font size
0
reset
guitar tuner
Autoscroll
slow
fast
+/-
esc
set tempo
stop
Help us to improve Ultimate-Guitar.com Take our survey!
×
Author
Difficulty
Tuning
intermediate
D A D G B E
Hey guys, this is my version of Love Was Still Around by Billy Talent. This Song 
has some great rhthym, so I hope you enjoy.
Check out my other tabs! Some are also by Billy Talent.
And please rate this tab! :)

Intro
G|----------------|----------------|----------------|----------------|
D|7-------8-------|3---------------|3-------7-------|8---------------|
A|-5-55-5--5-55-5-|-5-55-5-35-55-5-|-5-55-5--5-55-5-|-5-55-5-35-55-5-|
D|----------------|----------------|----------------|----------------|
  SE SE E SE SE E  SE SE E SE SE E  SE SE E SE SE E  SE SE E SE SE E

G|----------------|----------------|----------------|---------------------|
D|7-------8-------|3---------------|3-------7-------|8-------1012-12121212|
A|-5-55-5--5-55-5-|-5-55-5-35-55-5-|-5-55-5--5-55-5-|-5-55-5--------------|
D|----------------|----------------|----------------|---------------------|
  SE SE E SE SE E  SE SE E SE SE E  SE SE E SE SE E  SE SE E S E  S S S S 
 
Verse
G|----------------|----------------|----------------|----------------|
D|----------------|----------------|----------------|----------------|
A|----------------|----------------|----------------|----------------| 2x
D|7~~7----8~~8----|5~~5----5~~5----|3~~3----5~~5----|7~~7----7~~7--5-|
  E. E E. E. E E.  E. E E. E. E E.  E. E E. E. E E.  E. E E. E. E SE 

G|----------------|----------------|----------------|----------------|
D|----------------|----------------|----------------|----------------|
A|----------------|----------------|----------------|------------5-3-| 
D|7~~7----8~~8----|5~~5----5~~5----|3~~3----5~~5----|7~~7----7~~7----|
  E. E E. E. E E.  E. E E. E. E E.  E. E E. E. E E.  E. E E. E. SE E  

Pre-Chorus
G|----------------|----------------|      |----------------|--------------|
D|----------------|----------------|      |----------------|--------------|
A|----------------|----------------| 4x ->|5-5-5---5-5-5---|3-3-3-3-3-3---|
D|8~~8--7-8~~8--7-|5~~5--3-5~~5--7-|      |------7-------7-|------------5-|
  E. E SE E. E SE  E. E SE E. E SE         E E E E E E E E  E E E E E E E

Chorus 
G|----------------|----------------|----------------|----------------|
D|----------------|----------------|----------------|----------------|
A|----------------|----------------|----------------|3~~~3-3-3-3-3---|
D|0~~~0-7-7-8-8-5-|5-0-0-7-7-8-8-5-|3~~~3-3-3-3-3-7-|--------------7-|
  Q   E E E E E E  E E E E E E E E  Q   E E E E E E  Q   E E E E E E

G|----------------|----------------|----------------|----------------|
D|----------------|----------------|----------------|----------------|
A|----------------|----------------|5~~~5-5-5-5-5---|----------------|
D|8~~~8-8-8-8-8-7-|5~~~5-5-5-5-5-8-|--------------7-|10~~10101010/~5-|
  Q   E E E E E E  Q   E E E E E E  Q   E E E E E E  Q   E E E E E E

Verse 2
G|----------------|----------------|----------------|----------------|
D|----------------|----------------|----------------|----------------|
A|----------------|----------------|----------------|----------------| 
D|7~~7----8~~8----|5~~5----5~~5----|3~~3----5~~5----|7~~7----7~~7--5-|
  E. E E. E. E E.  E. E E. E. E E.  E. E E. E. E E.  E. E E. E. E SE

G|----------------|---|---|---|----------------|---|---|----------------|
D|----------------|---|---|---|----------------|---|---|----------------|
A|----------------|---|---|---|----------------|---|---|------------5-3-|
D|7/~~------------|---|---|--5|7/~~------------|---|---|----------------|
  Q   Q   H        F   F   HQE Q   Q   H        F   F   H       Q   E E

Pre-Chorus
Chorus (2x)

Chorus extended
G|----------------|----------------|----------------|----------------|
D|----------------|----------------|----------------|----------------|
A|----------------|----------------|5-5-5-5-5-5-5---|----------------|
D|8-8-8-8-8-8-8-7-|5-5-5-5-5-5-5-8-|--------------7-|101010101010/~5-|
  E E E E E E E E  E E E E E E E E  E E E E E E E E  E E E E E E E E

Bridge
G|----------------|----------------|----------------|----------------|
D|----------------|----------------|----------------|----------------|
A|----------------|----------------|----------------|----------------|
D|7~~7--7-8~~8--7-|5~~5--5-5~~5--5-|3~~3--3-5~~5--5-|7~~7--7-7~~7--5-|  
  E. E SE E. E SE  E. E SE E. E SE  E. E SE E. E SE  E. E SE E. E SE

G|----------------|----------------|----------------|----------------|
D|----------------|----------------|----------------|7-7-7-7-7-7-7/~~|
A|----------------|----------------|----------------|----------------|
D|7~~7--7-8~~8--7-|5~~5--5-5~~5--5-|3~~3--3-5~~5--5-|----------------|  
  E. E SE E. E SE  E. E SE E. E SE  E. E SE E. E SE  E E E E E E Q

Chorus (2x)
Chorus extended (2x)

Outro
G|----------------|----------------|----------------|----------------|
D|----------------|----------------|----------------|----------------|
A|----------------|--------35-55-5-|----------------|--------35-55-5-|
D|70-00-0-80-00-0-|30-00-0---------|30-00-0-70-00-0-|80-00-0---------|
  SE SE E SE SE E  SE SE E SE SE E  SE SE E SE SE E  SE SE E SE SE E

G|----------------|----------------|----------------|---------------------|
D|----------------|----------------|3-------7-------|8-------1012-12121212|
A|----------------|--------35-55-5-|----------------|---------------------|
D|70-00-0-80-00-0-|30-00-0---------|-0-00-0--0-00-0-|-0-00-0--------------|
  SE SE E SE SE E  SE SE E SE SE E  SE SE E SE SE E  SE SE E S E  S S S S

G|----------------|
D|----------------|
A|----------------|
D|0~~~~~~~~~~~~~~~|
  F
Suggest correction
comments
print report bad tab
1 comment total.
0 reply
StreetBass252 53 Feb 21, 2013 03:46 PM

Seems very good, thank you :)

guest
You may want to rate the tab now too:
select rating
Wanna post a correction for this tab? Suggest correction