Oops, an error
Loading. Please wait.

Man Alive Tab

version 1
version 1

Whole song

Interactive

9,222 views 9 this week
1 commentread comment
1 2 3 4 5
excellent!
x 6
add to favorites
launch autoscroll
font size
0
reset
how to read this tab
guitar tuner
Autoscroll
slow
fast
+/-
esc
set tempo
stop
Help us to improve Ultimate-Guitar.com Take our survey!
×
Author
Difficulty
Tuning
intermediate
D A D G B E
As usual with Billy Talent songs, this is in Drop D Tuning.

^=hammer-on/pull-off
b=bend
r=release bend
~=let ring/vibrato
X=Deadnote


Intro:

|---------|
|---------|
|---------|
|---------| x4
|----8~-8-|
|----0~-0-|

|---------------------------------|
|---------------------------------|
|---------------------------------|
|---------------------------------| x3
|-5^3^0----------------------8~-8-|
|-------6-6-6-7-7-7-10-10-10-0~-0-|

|-------------------------------------------------------|
|-------------------------------------------------------|
|-------------------------------------------------------|
|-------------------------------------------------------|
|-5^3^0-11-11-11-11-11-11-11-11-10-10-10-10-10-10-10-10-|
|-------8--8--8--8--8--8--8--8--7--7--7--7--7--7--7--7--|




Chorus 1:

|------------------------------------------------------------------------------|
|-6-66--6-66------------------6666666666666666--------------------------33-3-3-|
|-X-XX--X-XX------------------5555555544444444-10--10-10-10-10-10-10-10-22-2-2-|
|-7-77--7-77--777777778888888833333333XXXXXXXX-8---8--8--8--8--8--8--8--00-0-0-|
|-5-55--5-55--77777777888888883333333355555555-8---8--8--8--8--8--8--8--00-0-0-|
|-------5-55--77777777888888883333333355555555-8---8--8--8--8--8--8--8--00-0-0-|

|-------------------------------------------------------------------------------------|
|-6-66--6-66------------------6666666666666666--------------------------10-10--10--10-|
|-X-XX--X-XX------------------5555555544444444-10--10-10-10-10-10-10-10-X--X---X---X--|
|-7-77--7-77--777777778888888833333333XXXXXXXX-8---8--8--8--8--8--8--8--10-10--10--10-|
|-5-55--5-55--77777777888888883333333355555555-8---8--8--8--8--8--8--8--8--8---8---8--|
|-------5-55--77777777888888883333333355555555-8---8--8--8--8--8--8--8----------------|



Verse 1:
|---------|
|---------|
|---------|
|---------| x6
|----8~-8-|
|----0~-0-|

|---------------------------------------------------------------------------------------|
|---------------------------------------------------------------------------------------|
|---------------------------------------------------------------------------------------|
|---------------------------------------------------------------------------------------|
|-5^3^0-------------8~-8-----------------------8~-8-----------------------8~-8------10~-|
|-------5-6^5-5-6^5-0~-0-------6^5-5-6^5-5-6^5-0~-0-------6^5-5-6^5-5-6^5-0~-0---6~-7~--|

|----------------------------------------------------------------|
|----------------------------------------------------------------|
|----------------------------------------------------------------|
|----------------------------------------------------------------|
|-----3^0-5^3^0---------------8~-8-----------------------8~-8----|
|-5^6-----------6-5-6^5-5-6^5-0~-0-------6^5-5-6^5-5-6^5-0~-0----|

------------------------------------------|
------------------------------------------|
------------------------------------------|
------------------------------------------|
-------------------8~-8------11~----------|
---6^5-5-6^5-5-6^5-0~-0---7~-8~--77777777-|



Chorus 2:
just like Chorus 1



Verse 2:
just like Verse 1



Chorus 3:
just like Chorus 1 and 2, but at the ending part is repeated.


Breakdown:
|--------------------------------------|
|--------------------------------------|
|--------------------------------------|
|-0~----1~----2~----3~-----------------| x2
|-0~----1~----2~----3~----11-11-11-10~-|
|-0~----1~----2~----3~----8--8--8--8~--|

Repeat that pattern once again, but with different strumming (just listen to the 
song, you'll get it right),
and substitute the ending part with this:
|-----------------------------------------------------------------------|
|-----------------------------------------------------------------------|
|-----------------------------------------------------------------------|
|-----------------------------------------------------------------------|
|-11-11-11-10--10--8-7-77-77-11-11-11-10--10--8-7-77-77-11-11-11-10--10-|
|-8--8--8--8---8---8-7-77-77-8--8--8--8---8---8-7-77-77-8--8--8--8---8--|

------------------------------------------------|
------------------------------------------------|
------------------------------------------------|
------------------------------------------------|
-8-7-77-77-8-7-77-7-8-7-77-7-8------------------|
-8-7-77-77-8-7-77-7-8-7-77-7-8-7777555533332222-|

|---------|
|---------|
|---------|
|---------|
|----8~-8-|
|----0~-0-|



Chorus 4:
just like every Chorus. but the ending is repeated more often.



Outro:
like the second part of the intro, but end with this:
|---------------|
|---------------|
|---------------|
|---------------|
|----------8~-8-|
|-66655533-0~-0-|
Suggest correction
What's this?
You can suggest a correction to this tab. Community and Mods will review your correction and vote to approve or reject it.
comments
print report bad tab
1 comment total.
+2 reply
logilab0 213 wrote on September 17 2012, 06:23 am

Good tab except of the last chord in the chorus which is wrong, I think. This works for me:

|------------------------------------------------------------------------------|
|-6-66--6-66------------------6666666666666666--------------------------33-3-3-|
|-X-XX--X-XX------------------5555555544444444-10--10-10-10-10-10-10-10-22-2-2-|
|-7-77--7-77--777777778888888833333333XXXXXXXX-8---8--8--8--8--8--8--8--00-0-0-|
|-5-55--5-55--77777777888888883333333355555555-8---8--8--8--8--8--8--8--00-0-0-|
|-------5-55--77777777888888883333333355555555-8---8--8--8--8--8--8--8--00-0-0-|

|-------------------------------------------------------------------------------------|
|-6-66--6-66------------------6666666666666666----------------------------------------|
|-X-XX--X-XX------------------5555555544444444-10--10-10-10-10-10-10-10-9--9---9---9--|
|-7-77--7-77--777777778888888833333333XXXXXXXX-8---8--8--8--8--8--8--8--7--7---7---7--|
|-5-55--5-55--77777777888888883333333355555555-8---8--8--8--8--8--8--8--7--7---7---7--|
|-------5-55--77777777888888883333333355555555-8---8--8--8--8--8--8--8--7--7---7---7--|

guest
You may want to rate the tab now too:
select rating
Please do not post tabs as comments. Select "correction" instead!