Oops, an error
Loading. Please wait.

Navy Song Bass Tab

version 1
version 1

Whole song

Interactive

5,792 views 12 this week
3 commentsread comments
1 2 3 4 5
accurate
x 5
add to favorites
launch autoscroll
font size
0
reset
guitar tuner
Tab Pro tools
  • play this tab
  • loop segment
  • change instrument
  • show fretboard
  • metronome
×
Best way to learn
"Navy Song"
Autoscroll
slow
fast
+/-
esc
set tempo
stop
Contributor
Difficulty
Tuning
intermediate
D A D G B E
This is the most melancholy song that I've heard by Billy Talent,
cause it's about a WWII Soldier whos going to die in battle, so can
really hear the inevitablity in the music, almost like it's telling 
the story itself, so that's probably why it's one of the best songs 
they've written.

The bass has a little bit of sliding but the rest is straight foward.
Some of the tab is a bit sketchy, but I'll correct my errors later. 
Try & Rate it. Long live Taborama!

Intro:1x                                                   
G|-----------------------------|
D|-----------------------------|
A|--3(ring)----0(ring)--000000-|
D|-----------------------------|

Verse:2x                    
G|------------------------------------|
D|------------------------------------|
A|------------------------------------|
D|-5--5-5-5-5-5-(slide)-2--2-2-2-2-2--|

Post-Verse:4x  Play 2x After
G|------------|---------------------|
D|------------|-3/7\--/3\7\---------|
A|-3333333333-|-----0------00000000-|
D|------------|---------------------|

Verse:2x

Pre-Chorus:1x 
G|------------------------------------------------------------------|
D|------------------------------------------------------------------|
A|-3-3-3-3-3-3-3-3-0-0-0-0-0-0-0------------------------------------|
D|-------------------------------5-5-5-5-5-5-5-5-44-4-44-4-44-4-4-4-|

Chorus:2x
G|------------------------------------------------------------------------|
D|------------------------------------------------------------------------|
A|-22222222-444444-555555-------------------------------------------------|
D|------------------------55-5-55-5-55-5-55-00000000000-44-4-44-4-44-4-44-|

Post-Chorus:1x
G|--------------------------------|
D|------------3/7\--/3\7\---------|
A|-3--3--3--3-----0------00000000-|
D|--------------------------------|

Verse:2x
Pre-Chorus:1x 
Chorus:2x

Bridge:x1                                           Play 2x After 1st pt
G|--------------------------------------------------|----------3/7\--3/7\--|
D|------------3/7\--3/7\---------------3/7\--3/7\---|3--3--3--3----0-----0-|
A|-3--3--3--3-----0-----0---3--3--3--3-----0-----10-|----------------------|
D|--------------------------------------------------|----------------------|

Post-Bridge:1x
G|-----------------------------------------------------|
D|-----------------------------------------------------|
A|-3(ring)---0(ring)-----------------------------------|
D|--------------------5(ring)--44-4-44-4-44-4-44-4-4-4-|

Chorus:2x
Ending Chorus:2x
G|-------------------------------------------------------------------------|
D|------------------------55-5-55-5-55-5-55--------------------------------|
A|-22222222-444444-555555-------------------555555555555-------------------|
D|-------------------------------------------------------44-4-44-4-44-4-44-|

Ending:1x
G|----------------------------------------|
D|------------3/7\--/3\7\-----------------|
A|-3--3--3--3-----0------00000000---------|
D|--------------------------------2(ring)-|


comments
print report bad tab
3 comments total.
+1 reply
bobino819 wrote on February 3 2007, 06:09 pm

super tab

0 reply
KILO6 wrote on August 20 2009, 08:02 pm

nice tab i like it. but i cant quite get the timing for the one slide manuver from 3/7 0 3/7 i always get lost but watever thats my fault anyways.

0 reply
patrick.korber. wrote on May 19 2013, 08:29 am

I tried it, and i think the slide-notes are wrong. The slide on the G-string does absolultly not fit to this song. The hole rest of the tab sounds right, but I´m still trying to figure out the slide-notes.
Thanks for the tab

I want to post or [tab]
guest
You may want to rate the tab now too:
select rating
Please do not post tabs as comments. Select "correction" instead!