Oops, an error
Loading. Please wait.

Navy Song tab

version 1
version 1

Whole song

10,665 views 9 this week
4 commentsread comments
1 2 3 4 5
x 5
add to favorites
×
Save as Personal and add changes to this tab that will be seen only by you. Learn more ›
×
You can save this tab as Personal to edit and correct it or add notes. All changes will be seen only by you. Learn more »
launch autoscroll
font size
0
reset
how to read this tab
guitar tuner
edit
Autoscroll
slow
fast
+/-
esc
set tempo
stop
K its not the whole thing buts its the best i cud ear out, maybe u canfix it for me one 
or ill fix it myself......SHUT UP!

Intro:
e|--------------------12-----10----------------------|
B|------10----12-------------------12-----10-----12--|
G|-----9-----9------9------9------9-----9-------9----|
D|-10------10-----10-----10-----10----10------10-----|
A|---------------------------------------------------|
D|---------------------------------------------------|

 e|--------------8----7-----------------|
B|-----7---8-------------8---7---8------|
G|----5---5----5----5---5---5---5-------|
 D|---7---7----7----7---7---7---7-------|
A|--------------------------------------|
D|--------------------------------------|

e|--------------------12-----10----------------------|
B|------10----12-------------------12-----10-----12--|
G|-----9-----9------9------9------9-----9-------9----|
D|-10------10-----10-----10-----10----10------10-----|
A|---------------------------------------------------|
D|---------------------------------------------------|

e|--------------8----7------------------|
B|-----7---8-------------8--7777777-----|
G|----5---5----5----5---5---5555555-----|
D|---7---7----7----7---7----7777777-----|
A|--------------------------------------|
D|--------------------------------------|

e|--5------------------------2-------------------------|
B|--8------------------------0-------------------------|
G|--7------------------------0-----------| ------------|X2
D|-----------------------------------------------------|
A|-----------------------------------------------------|
D|-----------------------------------------------------|

e|-----------------------------------------------------|
B|-10-10-10-10-10-10-10-10-----------------------------|
G|-9---9---9--9--9--9---9--9---------------------------|
D|-10-10-10-10-10-10-10-10-----------------------------|
A|-----------------------------------------------------|
D|-----------------------------------------------------|

 e|--------------8----7-----------------|
B|-----7---8-------------8---7---7------|
G|----5---5----5----5---5---5---5-------|
 D|---7---7----7----7---7---7---7-------|
A|--------------------------------------|
D|--------------------------------------|

e|--5------------------------2-------------------------|
B|--8------------------------0-------------------------|
G|--7------------------------0-----------| ------------|X2
D|-----------------------------------------------------|
A|-----------------------------------------------------|
D|-----------------------------------------------------|

e|--------------------12-----10----------------------|
B|------10----12-------------------12-----10-----12--|
G|-----9-----9------9------9------9-----9-------9----|
D|-10------10-----10-----10-----10----10------10-----|
A|---------------------------------------------------|
D|---------------------------------------------------|

 e|-----------------8----7-----------------|
B|-------7---8--------------8---7---8------|
G|-----5---5----5----5----5---5---5--------|
 D|---7---7----7----7---7---7---7----------|
A|-----------------------------------------|
D|-----------------------------------------|

 e|------------------------7-------5----------------------------------------|
B|-------5-------7-------------------------------7---------5--------7-------|
G|----4-------4-------4------4--------4-----4--------4----------4-----------|
 D|-5------5-------5------5--------5------5--------5---------5--------------|
A|--------------------------------------------------------------------------|
D|--------------------------------------------------------------------------|

e|----------------------------------------------------------------|
B|----------------------------------------------------------------|
G|-----6--6----6-6-6--6----6-6-7--7----7-7-6--6-6-----------------|
D|-----4--4----4-4-4--4----4-4-4--4----4-4-4--4-4-----------------|
A|----------------------------------------------------------------|
D|----------------------------------------------------------------|
( strum up and down )
e|----------------------------------------------------------|
B|----------------------------------------------------------|    ( i gave my life to 
her, the ocean turned to red )
G|--444444444444666666777777--------------------------------|  ( cut down like lambs at 
good men were left for dead )
D|------------------------------------55----55----55----55--|
A|--222222222222444444555555--55----55----55----55----------|
D|------------------------------------55----55----55----55--|

e|---------------------------------------------------------------------------------------------------|
B|---------------------------------------------------------------------------------------------------|
G|---------------------------------------------------------------------------------------------------|
D|-777777777777999999******44----44----44----44---|  ( on this line, those *'s are 11's. 
on 11--|th fret )
A|-00000000000000000000000044----44----44----44------------------------------------------------------|
D|-00000000000000000000000044----44----44----44------------------------------------------------------|
( in the fall in the fall............)

e|-------------------------------7------5-----3-----5----------|
B|--3------5-------7-------8-----------------------------------|
G|-------------------------------------------------------------|
D|-------------------------------------------------------------|
A|-------------------------------------------------------------|
D|-------------------------------------------------------------|

e|--5------------------------2-------------------------|
B|--8------------------------0-------------------------|
G|--7------------------------0-----------| ------------|X2
D|-----------------------------------------------------|
A|-----------------------------------------------------|
D|-----------------------------------------------------|

e|--------------------12-----10----------------------|
B|------10----12-------------------12-----10-----12--|
G|-----9-----9------9------9------9-----9-------9----|
D|-10------10-----10-----10-----10----10------10-----|
A|---------------------------------------------------|
D|---------------------------------------------------|

 e|-----------------8----7-----------------|
B|-------7---8--------------8---7---8------|
G|-----5---5----5----5----5---5---5--------|
 D|---7---7----7----7---7---7---7----------|
A|-----------------------------------------|
D|-----------------------------------------|

 e|------------------------7-------5----------------------------------------|
B|-------5-------7-------------------------------7---------5--------7-------|
G|----4-------4-------4------4--------4-----4--------4----------4-----------|
 D|-5------5-------5------5--------5------5--------5---------5--------------|
A|--------------------------------------------------------------------------|
D|--------------------------------------------------------------------------|

e|----------------------------------------------------------------|
B|----------------------------------------------------------------|
G|-----6--6----6-6-6--6----6-6-7--7----7-7-6--6-6-----------------|
D|-----4--4----4-4-4--4----4-4-4--4----4-4-4--4-4-----------------|
A|----------------------------------------------------------------|
D|----------------------------------------------------------------|
( strum up and down )
e|----------------------------------------------------------|
B|----------------------------------------------------------|    ( i gave my life to 
her, the ocean turned to red )
G|--444444444444666666777777--------------------------------|  ( cut down like lambs at 
good men were left for dead )
D|------------------------------------55----55----55----55--|
A|--222222222222444444555555--55----55----55----55----------|
D|------------------------------------55----55----55----55--|

e|---------------------------------------------------------------------------------------------------|
B|---------------------------------------------------------------------------------------------------|
G|---------------------------------------------------------------------------------------------------|
D|-777777777777999999******44----44----44----44---|  ( on this line, those *'s are 11's. 
on 11--|th fret )
A|-00000000000000000000000044----44----44----44------------------------------------------------------|
D|-00000000000000000000000044----44----44----44------------------------------------------------------|
( in the fall in the fall............)

e|-------------------------------7------5-----3-----5---------------------------|
B|--3------5-------7-------8----------------------------------------------------|
G|------------------------------------------------------------------------------|
D|-----------------------------------------------------------|  ___________ X 4-|
A|------------------------------------------------------------------------------|
D|------------------------------------------------------------------------------|

( strum up and down )
e|----------------------------------------------------------|
B|----------------------------------------------------------|    ( i gave my life to 
her, the ocean turned to red )
G|--444444444444666666777777--------------------------------|  ( cut down like lambs at 
good men were left for dead )
D|------------------------------------55----55----55----55--|
A|--222222222222444444555555--55----55----55----55----------|
D|------------------------------------55----55----55----55--|

e|---------------------------------------------------------------------------------------------------|
B|---------------------------------------------------------------------------------------------------|
G|---------------------------------------------------------------------------------------------------|
D|-777777777777999999******44----44----44----44---|  ( on this line, those *'s are 11's. 
on 11--|th fret )
A|-00000000000000000000000044----44----44----44------------------------------------------------------|
D|-00000000000000000000000044----44----44----44------------------------------------------------------|
( in the fall in the fall............)

            
            
Suggest correction
Creating personal tab
Creating personal tab
You can edit any tab online and save it as your Personal.

You can edit, replace or remove any tab part or add personal notes – all changes will be seen only by you.

Personal tabs can be accessed anytime from any device, even offline.
Learn more »
comments
print report bad tab
4 comments total. Showing first comments.
0 reply
Nargenfargen 261 Jul 18, 2006 09:48 AM

It's a little confusing but mostly accurate. Good Job! 4*

0 reply
bobbynogo 129 Jul 19, 2006 09:28 AM

um, kinda difficult to read, if you could put it more neatly it would be awsome

0 reply
Zuka 403 Jul 19, 2006 02:30 PM

Looks like this dude copied and pasted it from somewhere... I'd have to give this tab a 1, simply because you can't read it! If you change it I'll change my rating.

guest
Wanna post a correction for this tab? Suggest correction