Oops, an error
Loading. Please wait.

Nothing To Lose Bass Tab

version 1
version 1

Whole song

Interactive

7,165 views 30 this week
8 commentsread comments
1 2 3 4 5
accurate
x 5
add to favorites
launch autoscroll
font size
0
reset
guitar tuner
Tab Pro tools
  • play this tab
  • loop segment
  • change instrument
  • show fretboard
  • metronome
Autoscroll
slow
fast
+/-
esc
set tempo
stop
Contributor
Song: Nothing to lose
Album: Billy Talent
Band: Billy Talent
Tabbed By: Masterbasser36

Note: This is not the order of play, the order is at the bottom, this is how to play the parts.

Riff 1 x6
G|---------------------|
D|-----------5---4-1-2-|
A|-------5-3---2-------|
E|-0-2-3---------------|

Riff 2 x2                x2
G|---------------------||-----------------------|
D|---------------------||-----------5---4-1-2---|
A|---------------------||-------5-3---2---------|
E|---------------------||-0-2-3-----------------|

Chorus
G|----------------------------------------|
D|----------------------------------------|
A|-33333333-77777777-55555555-222222------|
E|-----------------------------------32---|

G|-----------------------|---------------------|
D|-----------------------|----------11111111---|
A|-----------------------|---------------------|
E|-00000000-33333333-----|-22222222------------|

Outro x2
G|--------------------|
D|-----------5---4-1-2|
A|-------5-3---2------|
E|-0-2-3--------------|

Order Of Play:
Riff 1
Chorus x3
Riff 2
Chorus x4
Outro

Aw man, this is an awesome bass part, I'm pretty sure I tabbed it down correctly, please 
and comment if you see any mistakes.
comments
print report bad tab
8 comments total. Showing first comments.
0 reply
Masterbasser36 wrote on May 26 2006, 01:13 am

I made this a while ago, when I was a wee little tab noob, the riffs and outro go:

G|---|-------------------|
D|---|--------5---4-1--2-|
A|---|----5-3---2--------|
E|-0-|2-3----------------|

playing the 0 on E the first time each time, then its subbed with that 2 on the D.

sorry for the inconveniance

0 reply
ordino wrote on August 19 2006, 08:17 am

this is awsome!!!

0 reply
Masterbasser36 wrote on August 22 2006, 04:55 pm

why thank you!

I want to post or [tab]
guest
You may want to rate the tab now too:
select rating
Please do not post tabs as comments. Select "correction" instead!