Oops, an error
Loading. Please wait.

Nothing To Lose Bass Tab

version 2
version 2

Whole song

Interactive

4,076 views 18 this week
no commentswrite comment
1 2 3 4 5
excellent!
x 6
add to favorites
launch autoscroll
font size
0
reset
guitar tuner
Autoscroll
slow
fast
+/-
esc
set tempo
stop
Help us to improve Ultimate-Guitar.com Take our survey!
×
Author
Tuning
D A D G B E
G--------|--------|--------|--------|--------|--------|--------|--------|
D--------|--------|----5---|------0-|2-------|--------|----5---|--------|
A--------|----5---|3-------|2-------|--------|----5---|3-------|2-------|
D2---4---|5-------|--------|----4---|----4---|5-------|--------|----4-0-|

G--------|--------|--------|--------|--------|--------|--------|--------|
D--------|--------|--------|--------|--------|--------|----5---|--------|
A--------|----5---|3-------|2-2-----|--------|----5---|3-------|2-------|
D2---4---|5-------|----5---|----3---|2---4---|5-------|--------|----3-0-|

G--------|--------|--------|--------|--------|--------|--------|--------|
D--------|--------|--------|--------|--------|--------|----5---|----33--|
A--------|----5---|3-------|2-2-----|--------|----5---|3-------|2-----3-|
D2---4---|5-------|----5---|----3---|2---4---|5-------|--------|--------|

G--------|--------|--------|--------|--------|--------|--------|--------|
D--------|--------|--------|--------|--------|--------|--------|--------|
A33333333|77777777|55555555|222222--|--------|--------|--------|------02|
D--------|--------|--------|------54|22222222|55555555|44444444|111111--| 

G--------|--------|--------|--------|--------|--------|--------|--------|
D--------|--------|--------|--------|--------|--------|--------|--------|
A33333333|77777777|55555555|222222--|--------|--------|--------|------02|
D--------|--------|--------|------54|22222222|55555555|44444444|111111--| 

G--------|--------|--------|--------|--------|--------|--------|--------|
D--------|--------|--------|--------|--------|--------|--------|--------|
A33333333|77777777|55555555|222222--|--------|--------|--------|--------|
D--------|--------|--------|------54|22222222|55555555|44444444|11111111|

Wait for 8 bars then come in

G--------|--------|--------|--------|--------|--------|--------|--------|
D--------|--------|--------|--------|--------|--------|----5---|----3---|
A--------|----5---|3-------|2-2-----|--------|----5---|3-------|2-----2-|
D2---4---|5-------|----5---|----3---|2---4---|5-------|--------|--------|

G--------|--------|--------|--------|--------|--------|--------|--------|
D--------|--------|--------|--------|--------|--------|--------|--------|
A33333333|77777777|55555555|222222--|--------|--------|--------|------02|
D--------|--------|--------|------54|22222222|55555555|44444444|111111--| 

G--------|--------|--------|--------|--------|--------|--------|--------|
D--------|--------|--------|--------|--------|--------|--------|--------|
A33333333|77777777|55555555|222222--|--------|--------|--------|------02|
D--------|--------|--------|------54|22222222|55555555|44444444|111111--| 

G--------|--------|--------|--------|--------|--------|--------|--------|
D--------|--------|--------|--------|--------|--------|--------|--------|
A33333333|77777777|55555555|222222--|--------|--------|--------|------02|
D--------|--------|--------|------54|22222222|55555555|44444444|111111--|  

G--------|--------|--------|--------|--------|--------|--------|--------|
D--------|--------|--------|--------|--------|--------|--------|--------|
A33333333|77777777|55555555|222222--|--------|--------|--------|--------|
D--------|--------|--------|------54|22222222|55555555|44444444|11111111| 

G--------|--------|--------|--------|--------|--------|--------|--------|
D--------|--------|--------|------0-|2-------|--------|----5---|--------|
A--------|----5---|3-------|2-------|--------|----5---|3-------|2-------|
D2---4---|5-------|----5---|----3---|----4---|5-------|--------|----3-0-| 

G--------|--------|
D--------|--------|
A--------|--------|
D2-------|2-------|
Suggest correction
comments
print report bad tab
guest
You may want to rate the tab now too:
select rating
Please do not post tabs as comments. Select "correction" instead!