Oops, an error
Loading. Please wait.

Nothing To Lose Tab

version 4
version 4

Whole song

Interactive

131,308 views 81 this week
14 commentsread comments
1 2 3 4 5
excellent!
x 38
add to favorites
launch autoscroll
font size
0
reset
how to read this tab
guitar tuner
Autoscroll
slow
fast
+/-
esc
set tempo
stop
Help us to improve Ultimate-Guitar.com Take our survey!
×
Author
Difficulty
Tuning
intermediate
D A D G B E
Drop D Tuning (D-A-D-G-B-E)

   Verse:
e|--------------------------------------------------------------------0-|
B|--------0--------0--------0--------0------5-5-------------4-------4---|
G|------6--------8--------4--------4--------4---4-------------0---2-----|
D|----5--------7--------3--------3--------5-------5-------4-----3-------|
A|--7--------9--------5--------5--------3-----------3-3/2---------------|
D|----------------------------------------------------------------------|
   Need     more     friends  with    wings,           all the angels  I

e|--------------------------------------------------------------------0-|
B|--------0--------0--------0--------0-5------5-----5-------4-------4---|
G|------6--------8--------4--------4---4----4---4-------------0---2-----|
D|----5--------7--------3--------3--------5-------5-------4-----3-------|
A|--7--------9--------5--------5-------3--------------3/2---------------|
D|----------------------------------------------------------------------|
            know put  concrete  in my   veins.                        I'd

e|--------------------------------------------------------------------0-|
B|--------0--------0--------0--------0-5------5-----5-------4-------4---|
G|------6--------8--------4--------4---4----4---4-------------0---2-----|
D|----5--------7--------3--------3--------5-------5-------4-----3-------|
A|--7--------9--------5--------5-------3--------------3/2---------------|
D|----------------------------------------------------------------------|
    always    walk     home     alone,             so     I  became  life-

e|--------------------------------------------------------------------0-|
B|--------0--------0--------0--------0-5------5-----5-------4-------4---|
G|------6--------8--------4--------4---4----4---4-------------0---2-----|
D|----5--------7--------3--------3--------5-------5-------4-----3-------|
A|--7--------9--------5--------5-------3--------------3/2---------------|
D|----------------------------------------------------------------------|
          less   just   like    my    telephone.

   Chorus:
e|--------0--------0--------0--------0--------0--------0--------0--------0-|
B|--------5--------5--------8--------8--------7--------7--------3--------3-|
G|------6--------6--------0--------0--------0--------0--------0--------0---|
D|----5--------5--------9--------9--------7--------7--------4--------4-----|
A|--3--------3--------7--------7--------5--------5--------2--------2-------|
D|-------------------------------------------------------------------------|
        Theres nothing to lose     when no one knows your name.
-
e|--------0--------0----------0-----------0----------0------------0----0---|
B|--------8--------8----------12----------12---------10-----------10---7---|
G|------0--------0----------0-----------0----------0------------0------0---|
D|----9--------9---------12----------12---------10-----------10--------7---|
A|--7--------7--------10----------10----------9------------9-----------6---|
D|-------------------------------------------------------------------------|
        Theres nothing to gain          but the days don't seem to change.

   Interlude:
e|--------------------------------------------------------------------0-| X2
B|--------0--------0--------0--------0-5------5-----5-------4-------4---|
G|------6--------8--------4--------4---4----4---4-------------0---2-----|
D|----5--------7--------3--------3--------5-------5-------4-----3-------|
A|--7--------9--------5--------5-------3--------------3/2---------------|
D|----------------------------------------------------------------------|

   Verse:
e|--------------------------------------------------------------------0-|
B|--------0--------0--------0--------0-5------5-----5-------4-------4---|
G|------6--------8--------4--------4---4----4---4-------------0---2-----|
D|----5--------7--------3--------3--------5-------5-------4-----3-------|
A|--7--------9--------5--------5-------3--------------3/2---------------|
D|----------------------------------------------------------------------|
    Nev     er       played   truth or dare,      I'd have to check my mir

e|--------------------------------------------------------------------0-|
B|--------0--------0--------0--------0------5-5-------------4-------4---|
G|------6--------8--------4--------4--------4---4-------------0---2-----|
D|----5--------7--------3--------3--------5-------5-------4-----3-------|
A|--7--------9--------5--------5--------3-----------3-3/2---------------|
D|----------------------------------------------------------------------|
    ror      to      see    if im still here.                         My

e|--------------------------------------------------------------------0-|
B|--------0--------0--------0--------0------5-5-------------4-------4---|
G|------6--------8--------4--------4--------4---4-------------0---2-----|
D|----5--------7--------3--------3--------5-------5-------4-----3-------|
A|--7--------9--------5--------5--------3-----------3-3/2---------------|
D|----------------------------------------------------------------------|
    par      ents     had      no   clue             That I ate all my lunch

e|-------------------------------------------0-0-0-0-0-0-0-0-0-0--0-0-0-|
B|--------0--------0--------0--------0-------5-5-5-5-5-5-4-4-4-4--4-4-4-|
G|------6--------8--------4--------4---------4-4-4-4-4-4-0-0-0-0--2-2-2-|
D|----5--------7--------3--------3--------5------5-5-5-5-4-4-4-4--3-3-3-|
A|--7--------9--------5--------5--------3--------3---3---2--------------|
D|----------------------------------------------------------------------|
             es   alone   in   the bathroom

   Chorus:
e|--0-0-0-0--0-0-0-0-0-0-0-0-0-0-0-0-0-0-0-0-0-0-0-0-0-0-0-0-0-0-0-0-|
B|--5-5-5-5--5-5-5-5-8-8-8-8-8-8-8-8-7-7-7-7-7-7-7-7-3-3-3-3-3-3-3-3-|
G|--0-0-0-0--0-0-0-0-0-0-0-0-0-0-0-0-0-0-0-0-0-0-0-0-0-0-0-0-0-0-0-0-|
D|--5-5-5-5--5-5-5-5-9-9-9-9-9-9-9-9-7-7-7-7-7-7-7-7-4-4-4-4-4-4-4-4-|
A|--3-3-3-3--3-3-3-3-7-7-7-7-7-7-7-7-5-5-5-5-5-5-5-5-2-2-2-2-2-2-2-2-|
D|-------------------------------------------------------------------|
  Theres nothing to lose       when no one knows your name.

e|--0-0-0-0--0-0-0-0-0--0--0--0--0--0--0--0--0--0--0--0--0--0--0--0--|
B|--8-8-8-8--8-8-8-8-12-12-12-12-12-12-12-12-10-10-10-10-10-10-10-10-|
G|--0-0-0-0--0-0-0-0-0--0--0--0--0--0--0--0--0--0--0--0--0--0--0--0--|
D|--9-9-9-9--9-9-9-9-12-12-12-12-12-12-12-12-10-10-10-10-10-10-10-10-|
A|--7-7-7-7--7-7-7-7-10-10-10-10-10-10-10-10-9--9--9--9--9--9--9--9--|
D|-------------------------------------------------------------------|
  Theres nothing to gain                 but the days don't seem to

e|--0-0-0-0-0-0-0-0-|
B|--7-7-7-7-7-7-7-7-|
G|--0-0-0-0-0-0-0-0-|
D|--7-7-7-7-7-7-7-7-|
A|--6-6-6-6-6-6-6-6-|
D|------------------|
  change.

e|--0-0-0-0--0-0-0-0-0-0-0-0-0-0-0-0-0-0-0-0-0-0-0-0-0-0-0-0-0-0-0-0--|
B|--5-5-5-5--5-5-5-5-8-8-8-8-8-8-8-8-7-7-7-7-7-7-7-7-3-3-3-3-3-3-3-3--|
G|--0-0-0-0--0-0-0-0-0-0-0-0-0-0-0-0-0-0-0-0-0-0-0-0-0-0-0-0-0-0-0-0--|
D|--5-5-5-5--5-5-5-5-9-9-9-9-9-9-9-9-7-7-7-7-7-7-7-7-4-4-4-4-4-4-4-4--|
A|--3-3-3-3--3-3-3-3-7-7-7-7-7-7-7-7-5-5-5-5-5-5-5-5-2-2-2-2-2-2-2-2--|
D---------------------------------------------------------------------|
  Theres nothing to lose       my notebook will explain.

e|--0-0-0-0--0-0-0-0-0--0--0--0--0--0--0--0--0--0--0--0--0--0--0--0---|
B|--8-8-8-8--8-8-8-8-12-12-12-12-12-12-12-12-10-10-10-10-10-10-10-10--|
G|--0-0-0-0--0-0-0-0-0--0--0--0--0--0--0--0--0--0--0--0--0--0--0--0---|
D|--9-9-9-9--9-9-9-9-12-12-12-12-12-12-12-12-10-10-10-10-10-10-10-10--|
A|--7-7-7-7--7-7-7-7-10-10-10-10-10-10-10-10-9--9--9--9--9--9--9--9---|
D---------------------------------------------------------------------|
  Theres nothing to gain                and I can't fight the pain.

e|--0-0-0-0-0-0-0-0--|
B|--7-7-7-7-7-7-7-7--|
G|--0-0-0-0-0-0-0-0--|
D|--7-7-7-7-7-7-7-7--|
A|--6-6-6-6-6-6-6-6--|
D--------------------|

 Interlude:
e|------------------------------------------------------------------|
B|------------------------------------------------------------------|
G|------------------------------------------------------------------|
D|--5-5-5-5-5-5-5-5---------------------------------4-4-4-4-4-4-4-4-|
A|--3-3-3-3-3-3-3-3-2-2-2-2-2-2-2-2-0-0-0-0-0-0-0-0-2-2-2-2-2-2-2-2-|
D|------------------2-2-2-2-2-2-2-2-0-0-0-0-0-0-0-0-----------------|

e|------------------------------------------------------------------|
B|------------------------------------------------------------------|
G|------------------------------------------------------------------|
D|------------------------------------------------------------------|
A|--2-2-2-2-2-2-2-2-5-5-5-5-5-5-5-5-3-3-3-3-3-3-3-3-0-0-0-0-0-0-0-0-|
D|--2-2-2-2-2-2-2-2-5-5-5-5-5-5-5-5-3-3-3-3-3-3-3-3-1-1-1-1-1-1-1-1-|


  Verse:
e|--------------------------------------------------------------------0-|
B|--------0--------0--------0--------0-5------5-----5-------4-------4---|
G|------6--------8--------4--------4---4----4---4-------------0---2-----|
D|----5--------7--------3--------3--------5-------5-------4-----3-------|
A|--7--------9--------5--------5-------3--------------3/2---------------|
D|----------------------------------------------------------------------|
    Teach    er      said its just a phase.       When I grow up my chil

e|--------------------------------------------------------------------0--|
B|--------0--------0--------0--------0------5-5-------------4-------4----|
G|------6--------8--------4--------4--------4---4-------------0---2------|
D|----5--------7--------3--------3--------5-------5-------4-----3--------|
A|--7--------9--------5--------5--------3-----------3-3/2----------------|
D|-----------------------------------------------------------------------|
            dren   will probably do the same

e|--------------------------------------------------------------------0-|
B|--------0--------0--------0--------0------5-5-------------4-------4---|
G|------6--------8--------4--------4--------4---4-------------0---2-----|
D|----5--------7--------3--------3--------5-------5-------4-----3-------|
A|--7--------9--------5--------5--------3-----------3-3/2---------------|
D|----------------------------------------------------------------------|
   Kids     just     love      to  tease.          Who'd know it put me un

e|-------------------------------------------0-0-0-0-0-0-0-0-0-0--0-0-0-|
B|--------0--------0--------0--------0-------5-5-5-5-5-5-4-4-4-4--4-4-4-|
G|------6--------8--------4--------4---------4-4-4-4-4-4-0-0-0-0--2-2-2-|
D|----5--------7--------3--------3--------5------5-5-5-5-4-4-4-4--3-3-3-|
A|--7--------9--------5--------5--------3--------3---3---2--------------|
D|----------------------------------------------------------------------|
             der     ground  at seventeen.

   Chorus:
e|--0-0-0-0--0-0-0-0-0-0-0-0-0-0-0-0-0-0-0-0-0-0-0-0-0-0-0-0-0-0-0-0-|
B|--5-5-5-5--5-5-5-5-8-8-8-8-8-8-8-8-7-7-7-7-7-7-7-7-3-3-3-3-3-3-3-3-|
G|--0-0-0-0--0-0-0-0-0-0-0-0-0-0-0-0-0-0-0-0-0-0-0-0-0-0-0-0-0-0-0-0-|
D|--5-5-5-5--5-5-5-5-9-9-9-9-9-9-9-9-7-7-7-7-7-7-7-7-4-4-4-4-4-4-4-4-|
A|--3-3-3-3--3-3-3-3-7-7-7-7-7-7-7-7-5-5-5-5-5-5-5-5-2-2-2-2-2-2-2-2-|
D|-------------------------------------------------------------------|
  Theres nothing to lose       when no one knows your name.

e|--0-0-0-0--0-0-0-0-0--0--0--0--0--0--0--0--0--0--0--0--0--0--0--0--|
B|--8-8-8-8--8-8-8-8-12-12-12-12-12-12-12-12-10-10-10-10-10-10-10-10-|
G|--0-0-0-0--0-0-0-0-0--0--0--0--0--0--0--0--0--0--0--0--0--0--0--0--|
D|--9-9-9-9--9-9-9-9-12-12-12-12-12-12-12-12-10-10-10-10-10-10-10-10-|
A|--7-7-7-7--7-7-7-7-10-10-10-10-10-10-10-10-9--9--9--9--9--9--9--9--|
D|-------------------------------------------------------------------|
  Theres nothing to gain                 but the days don't seem to

e|--0-0-0-0-0-0-0-0-|
B|--7-7-7-7-7-7-7-7-|
G|--0-0-0-0-0-0-0-0-|
D|--7-7-7-7-7-7-7-7-|
A|--6-6-6-6-6-6-6-6-|
D|------------------|
  change.

e|--0-0-0-0--0-0-0-0-0-0-0-0-0-0-0-0-0-0-0-0-0-0-0-0-0-0-0-0-0-0-0-0-|
B|--5-5-5-5--5-5-5-5-8-8-8-8-8-8-8-8-7-7-7-7-7-7-7-7-3-3-3-3-3-3-3-3-|
G|--0-0-0-0--0-0-0-0-0-0-0-0-0-0-0-0-0-0-0-0-0-0-0-0-0-0-0-0-0-0-0-0-|
D|--5-5-5-5--5-5-5-5-9-9-9-9-9-9-9-9-7-7-7-7-7-7-7-7-4-4-4-4-4-4-4-4-|
A|--3-3-3-3--3-3-3-3-7-7-7-7-7-7-7-7-5-5-5-5-5-5-5-5-2-2-2-2-2-2-2-2-|
D|-------------------------------------------------------------------|
  Theres nothing to lose       my notebook will explain.

e|--0-0-0-0--0-0-0-0-0--0--0--0--0--0--0--0--0--0--0--0--0--0--0--0--|
B|--8-8-8-8--8-8-8-8-12-12-12-12-12-12-12-12-10-10-10-10-10-10-10-10-|
G|--0-0-0-0--0-0-0-0-0--0--0--0--0--0--0--0--0--0--0--0--0--0--0--0--|
D|--9-9-9-9--9-9-9-9-12-12-12-12-12-12-12-12-10-10-10-10-10-10-10-10-|
A|--7-7-7-7--7-7-7-7-10-10-10-10-10-10-10-10-9--9--9--9--9--9--9--9--|
D|-------------------------------------------------------------------|
  Theres nothing to gain                and I can't fight the pain.

e|--0-0-0-0-0-0-0-0-|
B|--7-7-7-7-7-7-7-7-|
G|--0-0-0-0-0-0-0-0-|
D|--7-7-7-7-7-7-7-7-|
A|--6-6-6-6-6-6-6-6-|
D|------------------|

e|--0-0-0-0--0-0-0-0-0-0-0-0-0-0-0-0-0-0-0-0-0-0-0-0-0-0-0-0-0-0-0-0-|
B|--5-5-5-5--5-5-5-5-8-8-8-8-8-8-8-8-7-7-7-7-7-7-7-7-3-3-3-3-3-3-3-3-|
G|--0-0-0-0--0-0-0-0-0-0-0-0-0-0-0-0-0-0-0-0-0-0-0-0-0-0-0-0-0-0-0-0-|
D|--5-5-5-5--5-5-5-5-9-9-9-9-9-9-9-9-7-7-7-7-7-7-7-7-4-4-4-4-4-4-4-4-|
A|--3-3-3-3--3-3-3-3-7-7-7-7-7-7-7-7-5-5-5-5-5-5-5-5-2-2-2-2-2-2-2-2-|
D|-------------------------------------------------------------------|
  Theres nothing to lose       when no one knows your name.

e|--0-0-0-0--0-0-0-0-0--0--0--0--0--0--0--0--0--0--0--0--0--0--0--0--|
B|--8-8-8-8--8-8-8-8-12-12-12-12-12-12-12-12-10-10-10-10-10-10-10-10-|
G|--0-0-0-0--0-0-0-0-0--0--0--0--0--0--0--0--0--0--0--0--0--0--0--0--|
D|--9-9-9-9--9-9-9-9-12-12-12-12-12-12-12-12-10-10-10-10-10-10-10-10-|
A|--7-7-7-7--7-7-7-7-10-10-10-10-10-10-10-10-9--9--9--9--9--9--9--9--|
D|-------------------------------------------------------------------|
  Theres nothing to gain                 my notebook will explain.

e|--0-0-0-0-0-0-0-0-|
B|--7-7-7-7-7-7-7-7-|
G|--0-0-0-0-0-0-0-0-|
D|--7-7-7-7-7-7-7-7-|
A|--6-6-6-6-6-6-6-6-|
D|------------------|

e|--0-0-0-0--0-0-0-0-0-0-0-0-0-0-0-0-0-0-0-0-0-0-0-0-0-0-0-0-0-0-0-0-|
B|--5-5-5-5--5-5-5-5-8-8-8-8-8-8-8-8-7-7-7-7-7-7-7-7-3-3-3-3-3-3-3-3-|
G|--0-0-0-0--0-0-0-0-0-0-0-0-0-0-0-0-0-0-0-0-0-0-0-0-0-0-0-0-0-0-0-0-|
D|--5-5-5-5--5-5-5-5-9-9-9-9-9-9-9-9-7-7-7-7-7-7-7-7-4-4-4-4-4-4-4-4-|
A|--3-3-3-3--3-3-3-3-7-7-7-7-7-7-7-7-5-5-5-5-5-5-5-5-2-2-2-2-2-2-2-2-|
D|-------------------------------------------------------------------|
  Theres nothing to lose       when no one knows your name.

e|--0-0-0-0--0-0-0-0-0--0--0--0--0--0--0--0--0--0--0--0--0--0--0--0--|
B|--8-8-8-8--8-8-8-8-12-12-12-12-12-12-12-12-10-10-10-10-10-10-10-10-|
G|--0-0-0-0--0-0-0-0-0--0--0--0--0--0--0--0--0--0--0--0--0--0--0--0--|
D|--9-9-9-9--9-9-9-9-12-12-12-12-12-12-12-12-10-10-10-10-10-10-10-10-|
A|--7-7-7-7--7-7-7-7-10-10-10-10-10-10-10-10-9--9--9--9--9--9--9--9--|
D|-------------------------------------------------------------------|
  Theres nothing to gain                 and I just died today.

e|--0-0-0-0-0-0-0-0-|
B|--7-7-7-7-7-7-7-7-|
G|--0-0-0-0-0-0-0-0-|
D|--7-7-7-7-7-7-7-7-|
A|--6-6-6-6-6-6-6-6-|
D|------------------|

Outro:
e|--------------------------------------------------------------------0-|
B|--------0--------0--------0--------0------5-5-------------4-------4---|
G|------6--------8--------4--------4--------4---4-------------0---2-----|
D|----5--------7--------3--------3--------5-------5-------4-----3-------|
A|--7--------9--------5--------5--------3-----------3-3/2---------------|
D|----------------------------------------------------------------------|

e|--------------------------------------------------------------------0-0-|
B|--------0--------0--------0--------0-5------5-----5-------4-------4---0-|
G|------6--------8--------4--------4---4----4---4-------------0---2-----6-|
D|----5--------7--------3--------3--------5-------5-------4-----3-------5-|
A|--7--------9--------5--------5-------3--------------3/2---------------7-|
D|------------------------------------------------------------------------|
Suggest correction
What's this?
You can suggest a correction to this tab. Community and Mods will review your correction and vote to approve or reject it.
comments
print report bad tab
14 comments total. Showing first comments. show 1 bad comment
+2 reply
austin_15 95 wrote on February 10 2007, 10:07 pm

Uhhhh yeah it is right I have the official Billy Talent tab book you dumbass.

+1 reply
monachima505 475 wrote on February 10 2007, 11:14 pm

yeaa Zukas wrong, it is perfect, but i thought it said you couldn't submit offical tabs..... oh welll....

guest
You may want to rate the tab now too:
select rating
Please do not post tabs as comments. Select "correction" instead!