Oops, an error
Loading. Please wait.

Perfect World Bass Tab

version 2
version 2

Whole song

Interactive

380 views 1 this week
no commentswrite comment
1 2 3 4 5
please rate
add to favorites
launch autoscroll
font size
0
reset
guitar tuner
Autoscroll
slow
fast
+/-
esc
set tempo
stop
Help us to improve Ultimate-Guitar.com Take our survey!
×
Contributor
Difficulty
Tuning
bobino819 349
novice
D A D G B E
Intro:1x                                                   
G|----------------------------------------|
D|----------------------------------------|
A|----------33---0------------33--5(ring)-|
D|-22---5------------22---5---------------|

Pre-Verse:1x                    
G|-----------------------------------------------------|
D|---------------------------------22222222------------|
A|---------22222222--------22222222---------3333-2-3-2-|
D|-55555555--------55555555----------------------------|

Verse:2x                    
G|-----------------------------------------------------------------------|
D|---------------------------------22222222----------22222222------------|
A|---------2(ring)---------2(ring)----------33333333----------3333-2-3-2-|
D|-5(ring)---------5(ring)-----------------------------------------------|

Chorus:1x
G|-----------------------------------------------------------------------|
D|-----------------------------------------------------------------------|
A|-------------------33333333-0000000------------------33333333-55555555-|
D|-22222222-55555555------------------22222222-55555555------------------|

Pre-Verse:1x
Verse:2x
Chorus:2x

Bridge:2x
G|-------------------------------------------------------------------------|
D|----------------------------------------------------00-00-0-33-0-3-5-3-0-|
A|-------------22-22-2-33-33-3---------22-22-2-----------------------------|
D|-0-22-22-0-2-----------------55-55-5---------22-22-2---------------------|

Pre-Chorus: Play Intro 1x
Chorus:2x
Suggest correction new What's this?
You can suggest a correction to this tab. Community and Mods will review your correction and vote to approve or reject it.
comments
We did not receive enough feedback on this tab! Please rate:
print report bad tab
1 2 3 4 5
I want to post or [tab]
guest
You may want to rate the tab now too:
select rating
Please do not post tabs as comments. Select "correction" instead!