Oops, an error
Loading. Please wait.

Perfect World Bass Tab

version 3
version 3

Whole song

Interactive

310 views 1 this week
no commentswrite comment
1 2 3 4 5
please rate
add to favorites
launch autoscroll
font size
0
reset
guitar tuner
Autoscroll
slow
fast
+/-
esc
set tempo
stop
Help us to improve Ultimate-Guitar.com Take our survey!
×
Author
Difficulty
novice
here my second tab converted to 5-string, hope its correct.


Intro:1x                                                   
G|-----------------------------------|
D|-----------------------------------|
A|----------33---0------------33--5~-|
E|-00---3------------00---3----------|
B|-----------------------------------|

Pre-Verse:1x                    
G|-----------------------------------------------------|
D|---------------------------------22222222------------|
A|---------22222222--------22222222---------3333-2-3-2-|
E|-33333333--------33333333----------------------------|
B|-----------------------------------------------------|

Verse:2x                    
G|-------------------------------------------------------------|
D|-----------------------------------------22222222------------|
A|------2~----------2~------------33333333----------3333-2-3-2-|
E|-3~---------3~---------00000000------------------------------|
B|-------------------------------------------------------------|

Chorus:1x
G|-----------------------------------------------------------------------|
D|-----------------------------------------------------------------------|
A|-------------------33333333-0000000------------------33333333-55555555-|
E|-00000000-33333333------------------00000000-33333333------------------|
B|-----------------------------------------------------------------------|

Pre-Verse:1x                    
G|-----------------------------------------------------|
D|---------------------------------22222222------------|
A|---------22222222--------22222222---------3333-2-3-2-|
E|-33333333--------33333333----------------------------|
B|-----------------------------------------------------|

Verse:2x                    
G|-------------------------------------------------------------|
D|-----------------------------------------22222222------------|
A|------2~----------2~------------33333333----------3333-2-3-2-|
E|-3~---------3~---------00000000------------------------------|
B|-------------------------------------------------------------|

Chorus:2x
G|-----------------------------------------------------------------------|
D|-----------------------------------------------------------------------|
A|-------------------33333333-0000000------------------33333333-55555555-|
E|-00000000-33333333------------------00000000-33333333------------------|
B|-----------------------------------------------------------------------|

Bridge Pt.1:2x (just listen to the music...^^)
G|-------------------------------------------------------------------------|
D|----------------------------------------------------00-00-0-33-0-3-5-3-0-|
A|-------------22-22-2-33-33-3---------22-22-2-----------------------------|
E|---22-22---2-----------------33-33-3---------00-00-0---------------------|
B|-3-------3---------------------------------------------------------------|

Bridge Pt.2:1x                                                   
G|-----------------------------------|
D|-----------------------------------|
A|----------33---0------------33--5~-|
E|-00---3------------00---3----------|
B|-----------------------------------|

Chorus:2x
G|-----------------------------------------------------------------------|
D|-----------------------------------------------------------------------|
A|-------------------33333333-0000000------------------33333333-55555555-|
E|-00000000-33333333------------------00000000-33333333------------------|
B|-----------------------------------------------------------------------|
Suggest correction
What's this?
You can suggest a correction to this tab. Community and Mods will review your correction and vote to approve or reject it.
comments
We did not receive enough feedback on this tab! Please rate:
print report bad tab
1 2 3 4 5
guest
You may want to rate the tab now too:
select rating
Please do not post tabs as comments. Select "correction" instead!