Oops, an error
Loading. Please wait.

Perfect World Bass Tab

version 4
version 4

Whole song

Interactive

907 views 1 this week
no commentswrite comment
1 2 3 4 5
2 more votes to show rating
add to favorites
launch autoscroll
font size
0
reset
guitar tuner
Autoscroll
slow
fast
+/-
esc
set tempo
stop
Help us to improve Ultimate-Guitar.com Take our survey!
×
Author
Song: Perfect World
Artist: Billy Talent
Album: Billy Talent II

This song is really easy to play. This tab is arranged according to the timing of 
the song. Also to print, use Courier New, size 9, and each line of tab will be on 
only one page. Enjoy!

INTRO   ( :  )

G|----------------|----------------|----------------|----------------|
D|----------------|----------------|----------------|----------------|
A|----------------|2-2-2-2-2-2-2-2-|----------------|2-2-2-2-2-2-2-2-|
D|5-5-5-5-5-5-5-5-|----------------|5-5-5-5-5-5-5-5-|----------------|

G|----------------|----------------|
D|----------------|----------------|
A|----------------|3-3-3-3-3-3-3-3-|
D|2-2-2-2-2-2-2-2-|----------------|


VERSE 1   ( :  )

G|----------------|----------------|----------------|----------------|
D|----------------|----------------|----------------|----------------|
A|----------------|2---------------|----------------|2---------------|
D|5---------------|----------------|5---------------|----------------|  \
                                                                        |  x2
G|----------------|----------------|----------------|----------------|  /
D|----------------|----------------|2-2-2-2-2-2-2-2-|----------------|
A|----------------|3-3-3-3-3-3-3-3-|----------------|3-3-3-3-3-3-3-3-|
D|2-2-2-2-2-2-2-2-|----------------|----------------|----------------|


CHORUS 1   ( :  )

G|----------------|----------------|----------------|----------------|
D|----------------|----------------|----------------|----------------|
A|----------------|----------------|3-3-3-3-3-3-3-3-|0-0-0-0-0-0-0-0-|
D|2-2-2-2-2-2-2-2-|5-5-5-5-5-5-5-5-|----------------|----------------|

G|----------------|----------------|----------------|----------------|
D|----------------|----------------|----------------|----------------|
A|----------------|----------------|3-3-3-3-3-3-3-3-|5-5-5-5-5-5-5-5-|
D|2-2-2-2-2-2-2-2-|5-5-5-5-5-5-5-5-|----------------|----------------|


PRE-VERSE 2   ( :  )  -> Play intro

VERSE 2   ( :  )  -> Play verse 1

CHORUS 2   ( :  )  -> Play chorus 1, then play this:

G|----------------|----------------|----------------|----------------|
D|----------------|----------------|----------------|----------------|
A|----------------|----------------|3-3-3-3-3-3-3-3-|0-0-0-0-0-0-0-0-|
D|2-2-2-2-2-2-2-2-|5-5-5-5-5-5-5-5-|----------------|----------------|

G|----------------|----------------|----------------|2-2-2-2-2-2-2---|
D|----------------|----------------|----------------|----------------|
A|----------------|----------------|3-3-3-3-3-3-3-3-|----------------|
D|2-2-2-2-2-2-2-2-|5-5-5-5-5-5-5-5-|----------------|--------------0-|


INTERLUDE   ( :  )

G|----------------|----------------|----------------|----------------|
D|----------------|----------------|----------------|----------------|
A|----------------|--2-2---2-2---2-|--3-3---3-3-3-3-|----------------|
D|--2-2---2-2-2-2-|----------------|----------------|--5-5---5-5---5-|  \
                                                                        |  x2
G|----------------|----------------|----------------|----------------|  /
D|----------------|----------------|----------------|----------------|
A|--2-2---2-2-2-2-|----------------|--5-----5-5-5-5-|----------------|
D|----------------|--2-2---2-2---2-|----0-0---------|--3-3-0-3-5-3-0-|


G|----------------|----------------|----------------|----------------|
D|----------------|----------------|----------------|----------------|
A|----------------|2-2-2-2-2-2-2-2-|3-3-3-3-3-3-3-3-|----------------|
D|--2-2-2-2-2-2-2-|----------------|----------------|5-5-5-5-5-5-5-5-|

G|----------------|----------------|----------------|----------------|
D|----------------|----------------|----------------|----------------|
A|2-2-2-2-2-2-2-2-|----------------|--5-----5-5-5-5-|----------------|
D|----------------|2-2-2-2-2-2-2-2-|----0-0---------|--3-3-0-3-5-3-0-|

Rest 7 bars

G|----------------|
D|----------------|
A|----------------|
D|--------12\-----|


CHORUS 3   ( :  )  -> Play chorus 1, then play this:

G|----------------|----------------|----------------|----------------|
D|----------------|----------------|----------------|----------------|
A|----------------|----------------|3-3-3-3-3-3-3-3-|0-0-0-0-0-0-0-0-|
D|2-2-2-2-2-2-2-2-|5-5-5-5-5-5-5-5-|----------------|----------------|

G|----------------|----------------|----------------|----------------|
D|----------------|----------------|----------------|----------------|
A|----------------|----------------|3-3-3-3-3-3-3---|----------------|
D|2-2-2-2-2-2-2-2-|5-5-5-5-5-5-5-5-|--------------0-|--0---0---0-----|    - :  


Symbol Legend:

x2  = Play this section twice
\   = Slide down

That’s it. Any questions, comments, suggestions or corrections would be appreciated.
Suggest correction
Give kudos to tab author, rate the tab!
1 2 3 4 5
comments
print report bad tab
guest
You may want to rate the tab now too:
select rating
Wanna post a correction for this tab? Suggest correction