Oops, an error
Loading. Please wait.

Perfect World Bass Tab

version 5
version 5

Whole song

Interactive

162 views 1 this week
no commentswrite comment
1 2 3 4 5
please rate
add to favorites
launch autoscroll
font size
0
reset
guitar tuner
Tab Pro tools
  • play this tab
  • loop segment
  • change instrument
  • show fretboard
  • metronome
×
Best way to learn
"Perfect World"
Autoscroll
slow
fast
+/-
esc
set tempo
stop
Contributor
Difficulty
Tuning
intermediate
D A D G B E
I tabbed this one out for a 5string bass.... the tuning is special DEADG.
 I basically left my tuning on the top 4 strings the same just tuned the B
to a D so the original tuning on this song it a Drop D which for a 4 string
is DADG To see this played on a 5string... by me... Please click here:
http://www.youtube.com/watch?v=HTNs46Rm-Vs

-------------------------------------------------------------------------------
Perfect World - Billy Talent
-------------------------------------------------------------------------------
Tabbed By : LadiesBass
e-mail: mineme_2004@hotmail.com
Tuning: Custom Drop D/Standard

INTRO: 1x
G|----------------------|
D|------------------0r--|
A|------33-0-----33-----|
E|----3---------3-------|
D|-22--------22---------|

PREVERSE: 1x
G|--------------------------------------------------------|
D|------------------------------------22222222------------|
A|---------22222222----------22222222-----------3333-232--|
E|-33333333---------33333333------------------------------|
D|--------------------------------------------------------|

VERSE: 2x
G|--------------------------------------------------|
D|-----------------------------22222222-------------|
A|----2r---2r----------33333333----------3333-232---|
E|-3r----3r-----------------------------------------|
D|-----------22222222-------------------------------|

CHORUS: 1x
G|--------------------------------------------------------------------------|
D|---------------------------------------------------------------00000000---|
A|-------------------33333333-00000000-------------------33333333-----------|
E|----------33333333----------------------------33333333--------------------|
D|-22222222----------------------------22222222-----------------------------|


PREVERSE: 1x
VERSE: 2x
CHORUS: 2x
BRIDGE: 2x
 G|-----------------------------------------------------------------------|
D|--------------------------------------------------00-00-0 3303530-------|
A|---------22-22-2-33-33-3---------22-22-2--------------------------------|
E|-------------------------33-33-3----------------------------------------|
 D|-22-22-2----------------------------------22-22-2----------------------|

1x
G|-----------------------------------------------------------------------|
D|------------------------------------------------------000000-3303530---|
A|----------22222222-33333333----------22222222--------------------------|
E|----------------------------33333333-----------------------------------|
D|-22222222-------------------------------------22222222-----------------|

INTRO: 1x
G|-----------------------|
D|-----------------------|
A|------33-0----333--\5--|
E|----3---------3--------|
D|-22--------22----------|
CHORUS: 2x

At the ending of the chorus the second time through its play like this on the last
4 notes. CHORUS ENDING: 1x
G|----------|
D|--0-0-0-0-|
A|----------|
E|----------|
D|----------|

| r let ring
| / slide up
| \ slide down
| h hammer-on
| p pull-off
| ~ vibrato
| + harmonic
| x Mute note
comments
We did not receive enough feedback on this tab! Please rate:
print report bad tab
1 2 3 4 5
I want to post or [tab]
guest
You may want to rate the tab now too:
select rating
Please do not post tabs as comments. Select "correction" instead!