Oops, an error
Loading. Please wait.

Pins And Needles Bass Tab

version 1
version 1

Whole song

12,497 views 6 this week
4 commentsread comments
1 2 3 4 5
accurate
x 10
add to favorites
launch autoscroll
font size
0
reset
guitar tuner
Tab Pro tools
  • play this tab
  • loop segment
  • change instrument
  • show fretboard
  • metronome
×
Best way to learn
"Pins And Needles"
Autoscroll
slow
fast
+/-
esc
set tempo
stop
Contributor
Difficulty
Tuning
novice
D A D G B E
Album: Billy Talent II
Tabbed by Tony D (Temp144)
Tuning: Drop D

Track 5 from Billy Talent II. 
They go really go emo on this song and I think this 
is the shortest song I've ever heard from BT, so this 
shows a different direction for their sound. Anyway, 
Try & Rate! Enjoy! 
Long Live Taborama.com!

Intro:2x                                                   
G|---------------------------------------|
D|---------------------------------------|
A|---------------------------------------|
D|-55--5--0(ring)--3(ring)-11-1-0(ring)--|

Verse:2x                   
G|---------------------------------------------------------------------|
D|---------------------------------------------------------------------|
A|---------------------------------------------------------------------|
D|--5(ring)--0(ring)--1(ring)--0(ring)--5(ring)--0(ring)--11--1-00--0--|

Chorus:1x                                                                   
G|--------------------------------------------------------------------|
D|--------------------------------------------------------------------|
A|-33-3------------------------11-1--33-3------------------------11-1-|
D|------33-3--55-5--00-0--11-1------------33-3--55-5--00-0--11-1------|

Chorus. Cont: Do Not Play in Chorus After Bridge
G|-----------------|
D|-----------------|
A|-3(ring)---------|
D|---------3(ring)-|

Post-Chorus: Play Intro 1x

Bridge:2x
G|-----------------------------------------|
D|-----------------------------------------|
A|-----------------------------------------|
D|-11111111-55555555-33-3-3-3--1-1-1-1-0-1-|

Chorus:1x

Chorus Alteration:1x
G|-------------------------------------|
D|-------------------------------------|
A|-33-3-------------------------11-1---|
D|------33-3--55-5--00-0--11-1---------|


Ending:1x
G|------------------------------|
D|------------------------------|
A|-3(ring)----------------------|
D|-----------3(ring)----5(ring)-|
comments
print report bad tab
4 comments total. Showing first comments.
0 reply
SAM_DUKE94 wrote on August 27 2007, 06:09 pm

awesome!

0 reply
Thelonious wrote on January 5 2008, 04:19 pm

nothing can be emo with that quality of guitar...great tab though

0 reply
Bullets4Money wrote on June 6 2008, 06:41 pm

the intro is wrong, it should be:
A|------------------------------------|
D|-55--5--0(ring)--3(ring)-11-1-00-0--|
and the bridge sounds wrong:
Bridge:4x
A|-----------------------------------|
D|-55555555-11111111-33-3-3-1-1-1-1--|
sounds better.

I want to post or [tab]
guest
You may want to rate the tab now too:
select rating
Please do not post tabs as comments. Select "correction" instead!