Oops, an error
Loading. Please wait.
We have an official Pins And Needles tab made by UG professional guitarists. Check out the tab »
×
34,639 views 15 this week
3 commentsread comments
1 2 3 4 5
x 3
add to favorites
×
Save as Personal and add changes to this tab that will be seen only by you. Learn more ›
×
You can save this tab as Personal to edit and correct it or add notes. All changes will be seen only by you. Learn more »
launch autoscroll
font size
0
reset
how to read this tab
guitar tuner
backing track
0:00
0:00
edit
Autoscroll
slow
fast
+/-
esc
set tempo
stop
-------------------------------------------------------------------------------
                        Pins and Needles - Billy Talent
-------------------------------------------------------------------------------
Tabbed by: Ben Johnson
Email: bennyj9@gmail.com

Tuning:Drop D

Full song coming very soon, as intro is the hardest part to tab in this song and only 
me half an hour.

e|----------------------5-----------------------------------------------------|
B|--------------6---8-----6---------------------------------------------------|
G|--------------7---9-------7-------------------------------------------------|x2
D|------7---8------------------------0---3--------7---10----------------------|
A|--5h6--------------------------1h3---1------7h8---8-------------------------|
E|5-------5---5---5---5--------1------------0---------------------------------|

e|---------------------------------------------------------------------------|
B|---------------------------------------------------------------------------|
G|---------------------------------------------------------------------------|
D|5-----0-----1-----0--------------------------------------------------------|x1
A|5-----0-----1-----0--------------------------------------------------------|
E|5-----0-----1-----0--------------------------------------------------------|

e|---------------------------------------|
B|---------------------------------------|
G|---------------------------------------|
D|5-----0-----------0---3--------7---10--|
A|5-----0-------1h3---1------7h8---8-----|
E|5-----0-----1------------0-------------|

===============================================================================
Suggest correction
Creating personal tab
Creating personal tab
You can edit any tab online and save it as your Personal.

You can edit, replace or remove any tab part or add personal notes – all changes will be seen only by you.

Personal tabs can be accessed anytime from any device, even offline.
Learn more »
Give kudos to tab author, rate the tab!
1 2 3 4 5
comments
print report bad tab
3 comments total.
0 reply
titi riendeau 58 Sep 22, 2008 08:58 AM

good job, miss some slide but good job, hope you make the whole song soon

0 reply
quwala 10 May 18, 2009 06:00 AM

crap...

0 reply
goretticals 28 Oct 15, 2009 12:29 PM

omg! I hate tabs! tough thnx!

guest
You may want to rate the tab now too:
select rating
Wanna post a correction for this tab? Suggest correction