Oops, an error
Loading. Please wait.

Pins And Needles Bass Tab

version 2
version 2

Whole song

4,608 views 3 this week
1 commentread comment
1 2 3 4 5
excellent!
x 3
add to favorites
launch autoscroll
font size
0
reset
guitar tuner
Autoscroll
slow
fast
+/-
esc
set tempo
stop
Help us to improve Ultimate-Guitar.com Take our survey!
×
Author
Song: Pins And Needles
Artist: Billy Talent
Album: Billy Talent II

This song is extremely easy to play and so easy to figure out that it probably doesn’t
need a tab, but I’ll do one anyway. The notes are arranged according to timing, but the
is so straightforward that that is probably unnecessary. Nevertheless, fell free to post 
comment with any questions you may have and I will help you as best I can. If you want
print this tab, just use the font Courier New, size 9, and no line of tab will be on 
than one page. Enjoy!


VERSE 2   ( :  )

G|----------------|----------------|----------------|----------------|
D|----------------|----------------|----------------|----------------|
A|----------------|----------------|----------------|----------------|
D|5---5-----5-----|0---------0-----|1---1-----1-----|0---0-----0-----|   x2

G|----------------|----------------|----------------|----------------|
D|----------------|----------------|----------------|----------------|
A|----------------|----------------|----------------|----------------|
D|5---------------|0---------------|1---------------|0---------------|  \
                                                                        |  x2
G|----------------|----------------|----------------|----------------|  /
D|----------------|----------------|----------------|----------------|
A|----------------|----------------|----------------|----------------|
D|5---------------|0---------------|1---1------1----|0---0-----0—-(0)|
                                                                 * play this
                                                                   note 2nd time
                                                                   only.


CHORUS 2   ( :  )

G|----------------|----------------|----------------|----------------|
D|----------------|----------------|----------------|----------------|
A|3---3-----3-----|----------------|----------------|----------------|
D|----------------|3---3-----3-----|5---5-----5-----|0---0-----0-----|

G|----------------|----------------|----------------|----------------|
D|----------------|----------------|----------------|----------------|
A|----------------|1---1-----1-----|3---3-----3-----|----------------|
D|1---1-----1-----|----------------|----------------|3---3-----3-----|

G|----------------|----------------|----------------|----------------|
D|----------------|----------------|----------------|----------------|
A|----------------|----------------|----------------|1---1-----1-----|
D|5---5-----5-----|0---0-----0-----|1---1-----1-----|----------------|

G|----------------|----------------|
D|----------------|----------------|
A|3---------------|----------------|
D|----------------|3---------------|


INTERLUDE   ( :  )

G|----------------|----------------|----------------|----------------|
D|----------------|----------------|----------------|----------------|
A|----------------|----------------|----------------|----------------|
D|5---5-----5-----|0---------0-----|1---1-----1-----|0---0-0---0-0-0-|

G|----------------|----------------|----------------|----------------|
D|----------------|----------------|----------------|----------------|
A|6-6-6-6-6-6-6-6-|----------------|----------------|----------------|
D|----------------|5-5-5-5-5-5-5-5-|3-3---3---3---3-|1---1---1---1-0-|   x3

G|----------------|----------------|----------------|----------------|
D|----------------|----------------|----------------|----------------|
A|6-6-6-6-6-6-6-6-|----------------|----------------|----------------|
D|----------------|5-5-5-5-5-5-5-5-|3-3---3---3---3-|1---1---1---1---|


CHORUS 3   ( :  )

G|----------------|----------------|----------------|----------------|
D|----------------|----------------|----------------|----------------|
A|3-3-3-3-3-3-3-3-|----------------|----------------|----------------|
D|----------------|3-3-3-3-3-3-3-3-|5-5-5-5-5-5-5-5-|0-0-0-0-0-0-0-0-|

G|----------------|----------------|----------------|----------------|
D|----------------|----------------|----------------|----------------|
A|----------------|1-1-1-1-1-1-1-1-|3-3-3-3-3-3-3-3-|----------------|
D|1-1-1-1-1-1-1-1-|----------------|----------------|3-3-3-3-3-3-3-3-|

G|----------------|----------------|----------------|----------------|
D|----------------|----------------|----------------|----------------|
A|----------------|----------------|----------------|1-1-1-1-1-1-1-1-|
D|5-5-5-5-5-5-5-5-|0-0-0-0-0-0-0-0-|1-1-1-1-1-1-1-1-|----------------|

G|----------------|----------------|----------------|----------------|
D|----------------|----------------|----------------|----------------|
A|3-3-3-3-3-3-3-3-|----------------|----------------|----------------|
D|----------------|3-3-3-3-3-3-3-3-|5-5-5-5-5-5-5-5-|0-0-0-0-0-0-0-0-|

G|----------------|----------------|----------------|----------------|
D|----------------|----------------|----------------|----------------|
A|----------------|1-1-1-1-1-1-1-1-|3---------------|----------------|
D|1-1-1-1-1-1-1-1-|----------------|----------------|3---------------|

G|----------------|----------------|----------------|----------------|
D|----------------|----------------|----------------|----------------|
A|----------------|----------------|----------------|----------------|
D|5~~~~~~~~~~~~~~~|(5)~~~~~~~~~~~~~|(5)~~~~~~~~~~~~~|(5)~~~~~~~~~~~~~|

G|----------------|----------------|----------------|----------------|
D|----------------|----------------|----------------|----------------|
A|----------------|----------------|----------------|----------------|
D|(5)~~~~~~~~~~~~~|(5)-------------|----------------|----------------|

G|----------------|
D|----------------|
A|----------------|
D|5---------------|    - :


Symbol Legend:

x2   = Play this section twice
~    = Let note ring
(5)  = Let note ring into next bar

That’s it. Any comments, questions, suggestions or corrections would be appreciated.
Suggest correction
Give kudos to tab author, rate the tab!
1 2 3 4 5
comments
print report bad tab
1 comment total.
0 reply
MusicSavesUs 31 wrote on April 14 2013, 12:05 am

this may sound really stupid but im just started learning bass soo, each bar is for beats right? cause i don't know how to count the ------5---------5

guest
You may want to rate the tab now too:
select rating
Wanna post a correction for this tab? Suggest correction