Oops, an error
Loading. Please wait.

Pocketful Of Dreams Bass Tab

version 1
version 1

Whole song

Interactive

5,920 views 6 this week
1 commentread comment
1 2 3 4 5
excellent!
x 10
add to favorites
launch autoscroll
font size
0
reset
guitar tuner
Tab Pro tools
  • play this tab
  • loop segment
  • change instrument
  • show fretboard
  • metronome
×
Best way to learn
"Pocketful Of Dreams"
Autoscroll
slow
fast
+/-
esc
set tempo
stop
Contributor
check it!

Intro:1x
G-------------------|
D-------------------|
A-----3-------3-----|
D-5-------5---------|

Verse:2x
G--------------------------------------------------------------------------|
D-----------5-----------------5--------------------------------------------|
A---5-----3--6-5-----5-----3---6-5------5---------3-1-0--------------------|
D-5--8-5----------5---8-5-----------5-5--8-5--3-3-------00000000--1111-3-3-|

Pre-Chorus:3x            After 3x
G-------------|------------------|
D-----5-8-7-5-|------------------|
A-6-6---------|---------55555555-|
D-------------|-88888888---------|

Chorus:1x
G-------------------------------------------------------------|
D-------------------------------------------------------------|
A---------------5-55-555555-5-3-33-333333-3-11111111----------|
D-5-55-555555-5--------------------------------------00000000-|

Post-Chorus: Play Intro 1x
Verse:1x
Pre-Chorus:3x
Chorus:2x

Bridge:1x
G----------------------------------------------------------------------------------|
D----------------------------------------------------------------------------------|
A-------------0-1-3-55555555555-6-5---333333333333-5-3-11111111--------555555555---|
D-55555555555-----------------------8--------------------------00000000----------5-|

Chorus:1x

Outro: Play Bridge 2x
comments
print report bad tab
1 comment total.
0 reply
vnwicked04 wrote on August 1 2011, 03:47 am

Pre-chorus is wrong it should be like this

G-----------------|-------------------|
D-----------------|-------------------|
A-----------------|----------55555555-|
D--1-1--5-8-7-5-0-|-77777777----------|

also, the chorus goes like that

G--------------------------------------------|
D--------------------------------------------|
A--------------------------3-33-333333-3--1>-|
D-5-55-555555-0-00-000000-0---------------0>-|

I want to post or [tab]
guest
You may want to rate the tab now too:
select rating
Please do not post tabs as comments. Select "correction" instead!