Oops, an error
Loading. Please wait.

Prisoner Of Today Bass Tab

1,213 views 6 this week
1 commentread comment
1 2 3 4 5
please rate
add to favorites
launch autoscroll
font size
0
reset
guitar tuner
Tab Pro tools
  • play this tab
  • loop segment
  • change instrument
  • show fretboard
  • metronome
×
Best way to learn
"Prisoner Of Today"
Autoscroll
slow
fast
+/-
esc
set tempo
stop
Contributor
Billy Talent
Prisoner Of Today

Chorus(0:12)
G|--------------------------------------------------------------------|
D|--------------------------------------------------------------------|
A|--------------------------------------------------------------------|
D|-5555555555555555-3333333333333333-0000000000000000-333333333333333-|

Verse #1 (0:24)
G|-------------------------------|
D|-------------------------------|
A|-------------------------------|
D|-55---3333---1111---1133---33--| x2

Verse #2 (0:35)
G|------------------------------------------|
D|------------------------------------------|
A|------------------------------------------|
D|-55558755--33337533--11115311--33337533---| x2

Break#1  (0:47)
G|------------------------|
D|-------------0~---------|
A|------------------------|
D|-5~-----3~--------3~----|

Break#2  (0:58)
G|-----------------------------------|
D|---55------33------11------33------|
A|-----------------------------------|
D|-55----3333----1111----1133----33--|

Verse #1 (1:04) x2
Verse #2 (1:16) x2

Break#3(1:28)
G|-------------------------------------------------------------|
D|-------------------------------------------------------------|
A|-------------------------------------------------------------|
D|-5~-----3~-----0~-----3~-------------------------------------|

Chorus (1:40)
G|--------------------------------------------------------------------|
D|--------------------------------------------------------------------|
A|--------------------------------------------------------------------|
D|-5555555555555555-3333333333333333-0000000000000000-333333333333333-|x2

Bridge#1 (2:03)
G|--------------------------------------|
D|--------------------------------------|
A|-3-3--3-3\1-1--1-1/5-5--5-5/6-6--6-6\-|
D|-----5--------3--------7--------8-----|

G|--------------------------------------|
D|--------------------------------------|
A|-3-3--3-3\1-1--1-1/5-5--5-5/66666666--|
D|-----5--------3--------7--------------|

Bridge#2 (2:04)
G|-------------------------------------|
D|-------------------------------------|
A|-33333333-11111111-55555555-66666666-|
D|-------------------------------------|

G|-------------------------------------|
D|-------------------------------------|
A|-33333333-11111111-------------------|
D|-------------------00000000-11111111-|x2


Break #3 (2:50)
Chorus #1 (3:01)x2

Outro(3:24)x2         
G|--------------------------------------------------------------------|
D|-5555555555555555-333333333333333-0000000000000000-3333333333333333-|
A|--------------------------------------------------------------------|
D|--------------------------------------------------------------------|

Chorus #1 (3:37)

Ending (3:49) 
G|--------|
D|----55--|
A|--------|
D|-55-----|

Please check out my basscover of the song: http://www.youtube.com/watch?v=sZAaDc2Kj6M
comments
We did not receive enough feedback on this tab! Please rate:
print report bad tab
1 2 3 4 5
1 comment total.
0 reply
Matyas.Jouza wrote on August 8 2013, 10:41 pm

Great tab man :D but the name of song is bad.

I want to post or [tab]
guest
You may want to rate the tab now too:
select rating
Please do not post tabs as comments. Select "correction" instead!