Oops, an error
Loading. Please wait.

Prisoners Of Today Bass Tab

version 1
version 1

Whole song

Interactive

3,944 views 3 this week
3 commentsread comments
1 2 3 4 5
x 7
add to favorites
launch autoscroll
font size
0
reset
guitar tuner
Autoscroll
slow
fast
+/-
esc
set tempo
stop
Help us to improve Ultimate-Guitar.com Take our survey!
×
--------------------------------------------------------------------------
              Billy Talent - Prisoners Of Today
--------------------------------------------------------------------------

Tabbed By : Andy1234
e-mail: Andyskinner12@hotmail.com

This is my thrid Billy Talent tab! I think everything is correct!

Drop D Tuning (D,A,D,G)


Intro (Each Note 16 Times) (0:12)
G|-------------------------------------------------------------|
D|-------------------------------------------------------------|
A|-------------------------------------------------------------|
D|-5-5-5-5-5-----3-3-3-3-3-----0-0-0-0-0-----3-3-3-3-3---------|

Verse #1 (0:24)x8
G|-------------------------------------------------------------|
D|-------------------------------------------------------------|
A|-------------------------------------------------------------|
D|-3---3---5---5-----------------------------------------------|

Verse #2 (0:35)x2
G|-------------------------------------------------------------|
D|-------------------------------------------------------------|
A|-------------------------------------------------------------|
D|-3-3-5-5--7h8p7--5--3-3--5h7p5--3-0-0--2h5p2--0--3-3-5h7p5---|

Break#1  (0:47)
G|-------------------------------------------------------------|
D|-------------------------------------------------------------|
A|-------------------------------------------------------------|
D|-5~-----3~--/12~\-----3~-------------------------------------|

Break#1  (0:58)
G|-------------------------------------------------------------|
D|-------5------------3------------1-------------3-------------|
A|-----5------------3------------1-------------3---------------|
D|-5-5------3-3-3-3------0-0-0-0-------3-3-3-3----5-5-5-5------|

Verse #1 (1:04) x8
Verse #2 (1:16) x2

Break#3(1:28)
G|-------------------------------------------------------------|
D|-------------------------------------------------------------|
A|-------------------------------------------------------------|
D|-5~-----3~-----0~-----3~-------------------------------------|

Chorus#1 (Play Each Note 16 Times) (1:40) x2
G|-------------------------------------------------------------|
D|-------------------------------------------------------------|
A|-------------------------------------------------------------|
D|-5-5-5-5-5-----3-3-3-3-3-----0-0-0-0-0-----3-3-3-3-3---------|

Chorus#2 (Listen Closly because the rythem changes) (2:03) x3
G|-------------------------------------------------------------|
D|-------------------------------------------------------------|
A|-3-3--3-3-3\1-1--1-1-1/5-5--5-5-5/6-6--6-6-6-----------------|
D|-------------------------------------------------------------|

Chorus #3 (2:20) x3
G|-------------------------------------------------------------|
D|-------------------------------------------------------------|
A|-3-3--3-3-3\1-1--1-1-1---------------------------------------|
D|------------------------0-0--0-0-0--1-1--1-1-1---------------|

(2:38) 
G|-------------------------------------------------------------|
D|-------------------------------------------------------------|
A|-------------------------------------------------------------|
D|-5\----------------------------------------------------------|

Break #3 (2:50)
Chorus #1 (3:01)x2

Outro (Play Each Note 16 Times)(3:24)          
G|-------------------------------------------------------------|
D|-5-5-5-5--3-3-3-3--0-0-0-0--3-3-3-3--------------------------|
A|-------------------------------------------------------------|
D|-------------------------------------------------------------|

Ending (3:49) 
G|-------------------------------------------------------------|
D|--------5----------------------------------------------------|
A|------5------------------------------------------------------|
D|-5--5--------------------------------------------------------|
Suggest correction
comments
print report bad tab
3 comments total.
0 reply
Alexisonfire37 70 Mar 04, 2004 12:00 AM

good tab my man!

0 reply
Alexisonfire37 70 Mar 04, 2004 12:00 AM

good tab my man!

0 reply
PuppyWu 20 Aug 15, 2004 12:00 AM

keep the bass tabs coming man

guest
You may want to rate the tab now too:
select rating
Wanna post a correction for this tab? Suggest correction