Oops, an error
Loading. Please wait.

Prisoners Of Today Tab

version 1
version 1

Interactive

13,566 views 1 this week
6 commentsread comments
1 2 3 4 5
x 13
add to favorites
launch autoscroll
font size
0
reset
how to read this tab
guitar tuner
×
Best way to learn
"Prisoners Of Today"
Autoscroll
slow
fast
+/-
esc
set tempo
stop
ARTIST: Billy Talent
TITLE:  Prisoners Of Today
ALBUM:  Billy Talent
GENRE:  Punk Rock
YEAR:   2003

---

Intro Part 1:

e|-----------------------------------------------------------------------|
B|-----------------------------------------------------------------------|
G|----10-----9-----7--------7---7---7---9-----7-----5-------5---5---5----|
D|--0----0-0---0-0---0-0-10---9---7---0---0-0---0-0---0-0-9---7---5---0--|
A|-----------------------------------------------------------------------|
D|-----------------------------------------------------------------------|

e|-----------------------------------------------------------|
B|-----------------------------------------------------------|
G|--4-4-4-7-7-4-7-7-4-7-7-4-7b-4-4-4-4-7-7-4-7-7-4-7-7-4-7b~-|
D|--0-0-0-0-0-0-0-0-0-0-0-0-0--0-0-0-0-0-0-0-0-0-0-0-0-0-0---|
A|-----------------------------------------------------------|
D|-----------------------------------------------------------|

---

Intro Part 2:

Guitar 1:

e|-------------------------------------------------------------------------|
B|-------------------------------------------------------------------------|
G|--10-10-10-9-9-9-7-7-7------------------9-9-9-7-7-7-5-5-5-4-4-4----------|
D|-----------------------10-10-10-9-9-7-7-------------------------7-7-5-5--|
A|-------------------------------------------------------------------------|
D|-------------------------------------------------------------------------|

e|-------------------------------------------------------------|
B|-------------------------------------------------------------|
G|--4-4-4-7-7-4-7-7-4-7-7-4-7b-7-4-4-4-7-7-4-7-7-4-7-7-4-7b-7--|
D|-------------------------------------------------------------|
A|-------------------------------------------------------------|
D|-------------------------------------------------------------|

Guitar 2:

e|------------------------------|
B|------------------------------|
G|------------------------------|
D|--7------5------4------5------|
A|--5-x16--3-x16--2-x16--3-x16--|
D|------------------------------|

---

Verse Part 1:

e|-------------------------------------|
B|-------------------------------------|
G|-------------------------------------|
D|--2-2---0-0-2-2---0-0-2-2---0-0-2-2--|
A|-------------------------------------|
D|-------------------------------------|

---

Verse Part 2:

e|------3-3---------5-5---------1-1---------5-5--|
B|------3-3---------5-5---------1-1---------5-5--|
G|------3-3---------5-5---------1-1---------5-5--|
D|--2-2-----0-0-2-2-----0-0-2-2-----0-0-2-2------|
A|-----------------------------------------------|
D|-----------------------------------------------|

---

Bridge Part 1:

e|--------------------------------------------------|
B|--------------------------------------------------|
G|--7-7--7-7-7--5-5--5-5-5--4-4--4-4-4--5-5--5-5-5--|
D|--7-7--7-7-7--5-5--5-5-5--4-4--4-4-4--5-5--5-5-5--|
A|--5-5--5-5-5--3-3--3-3-3--2-2--2-2-2--3-3--3-3-3--|
D|--------------------------------------------------|

---

Bridge Part 2:

e|--------------------------|
B|--------------------------|
G|--7-----5-----4-----5-----|
D|--7-----5-----4-----5-----|
A|--5-x8--3-x8--2-x8--3-x8--|
D|--------------------------|

---

Song Order:

Intro Part 1		x1
Intro Part 2		x1
Verse Part 1		x2
Verse Part 2		x2
Intro Part 1		x1
Verse Part 2		x1
Verse Part 1		x2
Verse Part 2		x2
Intro Part 1		x1
Intro Part 2		x2
Bridge Part 1		x4
Bridge Part 2		x2
Intro Part 1		x2
Intro Part 2		x4

---

If you have any questions, comments, corrections, or whatever, my MSN Messenger address
is luke@so.org. You can email me there too if you want, but I don't check that address
all that often.
Suggest correction
comments
print report bad tab
6 comments total. Showing first comments.
0 reply
billytalentPOW 10 Jun 24, 2004 08:00 PM

i didnt look at the rest of the song, but the intro is wrong
play it like

G---8-----7-----5--------5---5---5
D-5---5-5---5-5---5-5--8---7---5--


G---7-----5-----3--------3---3---3
D-3---3-3---3-3---3-3--7---5---3--


G-2-2-5-2-2-5-2-2-5-5-2-2-5b~~~
D-0-0-0-0-0-0-0-0-0-0-0-0-0-

G-2-2-5-2-2-5-2-2-5-5-2-2-5b~~~
D-3-3-3-3-3-3-3-3-3-3-3-3-3-


and there u go... the rets of the tab i dont know might be wrong too

0 reply
GodOfFire16 10 Nov 07, 2004 07:00 PM

theres only one guitarist

0 reply
shoebox_of_lies 2,833 Feb 01, 2006 08:04 AM

yeah...not to sound mean, but this is crap.

guest
You may want to rate the tab now too:
select rating
Wanna post a correction for this tab? Suggest correction