Oops, an error
Loading. Please wait.

Prisoners Of Today tab

version 3
version 3

Interactive

4,319 views 1 this week
2 commentsread comments
1 2 3 4 5
x 7
add to favorites
×
Save as Personal and add changes to this tab that will be seen only by you. Learn more ›
×
You can save this tab as Personal to edit and correct it or add notes. All changes will be seen only by you. Learn more »
launch autoscroll
font size
0
reset
how to read this tab
guitar tuner
edit
Autoscroll
slow
fast
+/-
esc
set tempo
stop
Prisoners of Today
by Billy Talent
tabbed by Jabber025

(The song is in order)
Intro

fast tempo (157)
                                                         
E||--------------------------|--------------------------|
B||--------------------------|--------------------------|
G||-----8--------7--------5--|-----------5-----5-----5--|
D||--5-----5--5-----5--5-----|--5--5--8-----7-----5-----|
A||--------------------------|--------------------------|
D||--------------------------|--------------------------|

                                                                                
--------------------------|--------------------------|-------------------------|
--------------------------|--------------------------|-------------------------|
-----7--------5--------3--|-----------3-----3-----3--|-----2----2--5-----2--5--|
--3-----3--3-----3--3-----|--3--3--7-----5-----3-----|--0--0----0--0--0--0--0--|
--------------------------|--------------------------|-------------------------|
--------------------------|--------------------------|-------------------------|

                                                                            
------------------------|-------------------------|------------------------|
------------------------|-------------------------|------------------------|
-----2--5-----2--5r-----|-----2----2--5-----2--5--|-----2--5-----2--5b-----|
--0--0--0--0--0--0------|--0--0----0--0--0--0--0--|--0--0--0--0--0--0------|
------------------------|-------------------------|------------------------|
------------------------|-------------------------|------------------------|

                                                                                
-------------------------|--------------------------|--------------------------|
-------------------------|--------------------------|--------------------------|
----8--8--8--7--7--7--5--|--5--5--------------------|--7--7--7--5--5--5--3--3--| 
----5--5--5--5--5--5--5--|--5--5--8--8--7--7--5--5--|--3--3--3--3--3--3--3--3--| 
----5--5--5--5--5--5--5--|--5--5--5--5--5--5--5--5--|--3--3--3--3--3--3--3--3--|
-------------------------|--------------------------|--------------------------|

You don’t have to add the extra 5 and 3 at the bottom, only if you want to 
make it sound heavier
                                                                              
--------------------------|-------------------------|------------------------|
--------------------------|-------------------------|------------------------|
--3-----------------------|-----2----2--5-----2--5--|-----2--5-----2--5r-----|
--3--7--7--5--5--3--3--3--|--0--0----0--0--0--0--0--|--0--0--0--0--0--0------|
--3--3--3--3--3--3--3--3--|-------------------------|------------------------|
--------------------------|-------------------------|------------------------|

                                                    VERSE                      
-------------------------|------------------------|----------------------|
-------------------------|------------------------|----------------------|
-----2----2--5-----2--5--|-----2--5-----2--5r-----|----------------------|
--0--0----0--0--0--0--0--|--0--0--0--0--0---------|----------------------|
-------------------------|-----------------3------|--5--5----------3--3--|
-------------------------|------------------------|----------------------|

                                                                    
----------------------|----------------------|----------------------|
----------------------|----------------------|----------------------|
----------------------|----------------------|----------------------|
----------------------|----------------------|----------------------|
--5--5----------3--3--|--5--5----------3--3--|--5--5----------3--3--|
----------------------|----------------------|----------------------|

                                                                        
----------3------------|----------5------------|----------3------------|
----------4------------|----------6------------|----------4------------|
----------5------------|----------7------------|----------5------------|
-----------------------|-----------------------|-----------------------|
--5--5-----------3--3--|--5--5-----------3--3--|--5--5-----------3--3--|
-----------------------|-----------------------|-----------------------|

                                                                        
----------5------------|----------3------------|----------5------------|
----------6------------|----------4------------|----------6------------|
----------7------------|----------5------------|----------7------------|
-----------------------|-----------------------|-----------------------|
--5--5-----------3--3--|--5--5-----------3--3--|--5--5-----------3--3--|
-----------------------|-----------------------|-----------------------|

                                                                        
----------3------------|----------5------------|----------3------------|
----------4------------|----------6------------|----------4------------|
----------5------------|----------7------------|----------5------------|
-----------------------|-----------------------|-----------------------|
--5--5-----------3--3--|--5--5-----------3--3--|--5--5-----------3--3--|
-----------------------|-----------------------|-----------------------|

                                                                       
----------5------------|----------3------------|----------5------------|
----------6------------|----------4------------|----------6------------|
----------7------------|----------5------------|----------7------------|
-----------------------|-----------------------|-----------------------|
--5--5-----------3--3--|--5--5-----------3--3--|--5--5-----------3--3--|
-----------------------|-----------------------|-----------------------|

                                                      
--------------------------|--------------------------|
--------------------------|--------------------------|
-----8--------7--------5--|-----------5-----5-----5--|
--5-----5--5-----5--5-----|--5--5--8-----7-----5-----|
--------------------------|--------------------------|
--------------------------|--------------------------|

                                                                                
--------------------------|--------------------------|-------------------------|
--------------------------|--------------------------|-------------------------|
-----7--------5--------3--|-----------3-----3-----3--|-----2----2--5-----2--5--|
--3-----3--3-----3--3-----|--3--3--7-----5-----3-----|--0--0----0--0--0--0--0--|
--------------------------|--------------------------|-------------------------|
--------------------------|--------------------------|-------------------------|

                                                                            
------------------------|-------------------------|------------------------|
------------------------|-------------------------|------------------------|
-----2--5-----2--5r-----|-----2----2--5-----2--5--|-----2--5-----2--5b-----|
--0--0--0--0--0--0------|--0--0----0--0--0--0--0--|--0--0--0--0--0---------|
------------------------|-------------------------|-----------------3------|
------------------------|-------------------------|------------------------|

                                                                           
----------3--3----------|----------5--5----------|----------3--3----------|
----------4--4----------|----------6--6----------|----------4--4----------|
----------5--5----------|----------7--7----------|----------5--5----------|
------------------------|------------------------|------------------------|
--5--5------------3--3--|--5--5------------3--3--|--5--5------------3--3--|
------------------------|------------------------|------------------------|


                          VERSE 2                                             
----------5--5----------|----------------------|----------------------|
----------6--6----------|----------------------|----------------------|
----------7--7----------|----------------------|----------------------|
------------------------|----------------------|----------------------|
--5--5------------3--3--|--5--5----------3--3--|--5--5----------3--3--|
------------------------|----------------------|----------------------|

                                                                      
----------------------|----------------------|----------3------------|
----------------------|----------------------|----------4------------|
----------------------|----------------------|----------5------------|
----------------------|----------------------|-----------------------|
--5--5----------3--3--|--5--5----------3--3--|--5--5-----------3--3--|
----------------------|----------------------|-----------------------|

                                                                        
----------5------------|----------3------------|----------5------------|
----------6------------|----------4------------|----------6------------|
----------7------------|----------5------------|----------7------------|
-----------------------|-----------------------|-----------------------|
--5--5-----------3--3--|--5--5-----------3--3--|--5--5-----------3--3--|
-----------------------|-----------------------|-----------------------|


                                                                        
----------3------------|----------5------------|----------3------------|
----------4------------|----------6------------|----------4------------|
----------5------------|----------7------------|----------5------------|
-----------------------|-----------------------|-----------------------|
--5--5-----------3--3--|--5--5-----------3--3--|--5--5-----------3--3--|
-----------------------|-----------------------|-----------------------|

                                                                        
----------5------------|----------3------------|----------5------------|
----------6------------|----------4------------|----------6------------|
----------7------------|----------5------------|----------7------------|
-----------------------|-----------------------|-----------------------|
--5--5-----------3--3--|--5--5-----------3--3--|--5--5-----------3--3--|
-----------------------|-----------------------|-----------------------|

                                                                           
----------3------------|----------5------------|--------------------------|
----------4------------|----------6------------|--------------------------|
----------5------------|----------7------------|-----8--------7--------5--|
-----------------------|-----------------------|--5-----5--5-----5--5-----|
--5--5-----------3--3--|--5--5-----------3--3--|--------------------------|
-----------------------|-----------------------|--------------------------|

                                                      
--------------------------|--------------------------|
--------------------------|--------------------------|
-----------5-----5-----5--|-----7--------5--------3--|
--5--5--8-----7-----5-----|--3-----3--3-----3--3-----|
--------------------------|--------------------------|
--------------------------|--------------------------|

                                                                              
--------------------------|-------------------------|------------------------|
--------------------------|-------------------------|------------------------|
-----------3-----3-----3--|-----2----2--5-----2--5--|-----2--5-----2--5r-----|
--3--3--7-----5-----3-----|--0--0----0--0--0--0--0--|--0--0--0--0--0--0------|
--------------------------|-------------------------|------------------------|
--------------------------|-------------------------|------------------------|

                                                    CHORUS                         
-------------------------|------------------------|-------------------------|
-------------------------|------------------------|-------------------------|
-----2----2--5-----2--5--|-----2--5-----2--5b-----|----8--8--8--7--7--7--5--|
--0--0----0--0--0--0--0--|--0--0--0--0--0--0------|----5--5--5--5--5--5--5--|
-------------------------|------------------------|----5--5--5--5--5--5--5--|
-------------------------|------------------------|-------------------------|

                                                      
--------------------------|--------------------------|
--------------------------|--------------------------|
--5--5--------------------|--7--7--7--5--5--5--3--3--|
--5--5--8--8--7--7--5--5--|--3--3--3--3--3--3--3--3--|
--5--5--5--5--5--5--5--5--|--3--3--3--3--3--3--3--3--|
--------------------------|--------------------------|

                                                                              
--------------------------|-------------------------|------------------------|
--------------------------|-------------------------|------------------------|
--3-----------------------|-----2----2--5-----2--5--|-----2--5-----2--5r-----|
--3--7--7--5--5--3--3--3--|--0--0----0--0--0--0--0--|--0--0--0--0--0--0------|
--3--3--3--3--3--3--3--3--|-------------------------|------------------------|
--------------------------|-------------------------|------------------------|

                                                                             
-------------------------|------------------------|-------------------------|
-------------------------|------------------------|-------------------------|
-----2----2--5-----2--5--|-----2--5-----2--5r-----|----8--8--8--7--7--7--5--|
--0--0----0--0--0--0--0--|--0--0--0--0--0--0------|----5--5--5--5--5--5--5--|
-------------------------|------------------------|----5--5--5--5--5--5--5--|
-------------------------|------------------------|-------------------------|

                                                      
--------------------------|--------------------------|
--------------------------|--------------------------|
--5--5--------------------|--7--7--7--5--5--5--3--3--|
--5--5--8--8--7--7--5--5--|--3--3--3--3--3--3--3--3--|
--5--5--5--5--5--5--5--5--|--3--3--3--3--3--3--3--3--|
--------------------------|--------------------------|

                                                                              
--------------------------|-------------------------|------------------------|
--------------------------|-------------------------|------------------------|
--3-----------------------|-----2----2--5-----2--5--|-----2--5-----2--5r-----|
--3--7--7--5--5--3--3--3--|--0--0----0--0--0--0--0--|--0--0--0--0--0--0------|
--3--3--3--3--3--3--3--3--|-------------------------|------------------------|
--------------------------|-------------------------|------------------------|

                                                    Bridge section 1                      
-------------------------|------------------------|-----------------------|
-------------------------|------------------------|--4--4----4--4----4----|
-----2----2--5-----2--5--|-----2--5-----2--5r-----|--5--5----5--5----5----|
--0--0----0--0--0--0--0--|--0--0--0--0--0--0------|--5--5----5--5----5----|
-------------------------|------------------------|--3--3----3--3----3----|
-------------------------|------------------------|-----------------------|

                                                                        
-----------------------|-----------------------|-----------------------|
--3--3----3--3----3----|--6--6----6--6----6----|-----------------------|
--3--3----3--3----3----|--7--7----7--7----7----|--8--8----8--8----8----|
--3--3----3--3----3----|--7--7----7--7----7----|--8--8----8--8----8----|
--1--1----1--1----1----|--5--5----5--5----5----|--6--6----6--6----6----|
-----------------------|-----------------------|-----------------------|

                                                                        
-----------------------|-----------------------|-----------------------|
--4--4----4--4----4----|--3--3----3--3----3----|--6--6----6--6----6----|
--5--5----5--5----5----|--3--3----3--3----3----|--7--7----7--7----7----|
--5--5----5--5----5----|--3--3----3--3----3----|--7--7----7--7----7----|
--3--3----3--3----3----|--1--1----1--1----1----|--5--5----5--5----5----|
-----------------------|-----------------------|-----------------------|

                       Section 2 (x2)
                                                                              
-----------------------|--------------------------|--------------------------|
-----------------------|--4--4--4--4--4--4--4--4--|--3--3--3--3--3--3--3--3--|
--8--8----8--8----8----|--5--5--5--5--5--5--5--5--|--3--3--3--3--3--3--3--3--|
--8--8----8--8----8----|--5--5--5--5--5--5--5--5--|--3--3--3--3--3--3--3--3--|
--6--6----6--6----6----|--3--3--3--3--3--3--3--3--|--1--1--1--1--1--1--1--1--|
-----------------------|--------------------------|--------------------------|

                                                      
--------------------------|--------------------------|
--6--6--6--6--6--6--6--6--|--8--8--8--8--8--8--8--8--|
--7--7--7--7--7--7--7--7--|--8--8--8--8--8--8--8--8--|
--7--7--7--7--7--7--7--7--|--8--8--8--8--8--8--8--8--|
--5--5--5--5--5--5--5--5--|--6--6--6--6--6--6--6--6--|
--------------------------|--------------------------|

                                                      
--------------------------|--------------------------|
--------------------------|--------------------------|
-----8--------7--------5--|-----------5-----5-----5--|
--5-----5--5-----5--5-----|--5--5--8-----7-----5-----|
--------------------------|--------------------------|
--------------------------|--------------------------|

                                                                                
--------------------------|--------------------------|-------------------------|
--------------------------|--------------------------|-------------------------|
-----7--------5--------3--|-----------3-----3-----3--|-----2----2--5-----2--5--|
--3-----3--3-----3--3-----|--3--3--7-----5-----3-----|--0--0----0--0--0--0--0--|
--------------------------|--------------------------|-------------------------|
--------------------------|--------------------------|-------------------------|

                                                                            
------------------------|-------------------------|------------------------|
------------------------|-------------------------|------------------------|
-----2--5-----2--5r-----|-----2----2--5-----2--5--|-----2--5-----2--5b-----|
--0--0--0--0--0--0------|--0--0----0--0--0--0--0--|--0--0--0--0--0--0------|
------------------------|-------------------------|------------------------|
------------------------|-------------------------|------------------------|


                                                      
--------------------------|--------------------------|
--------------------------|--------------------------|
-----8--------7--------5--|-----------5-----5-----5--|
--5-----5--5-----5--5-----|--5--5--8-----7-----5-----|
--------------------------|--------------------------|
--------------------------|--------------------------|

                                                                               
--------------------------|--------------------------|-------------------------|
--------------------------|--------------------------|-------------------------|
-----7--------5--------3--|-----------3-----3-----3--|-----2----2--5-----2--5--|
--3-----3--3-----3--3-----|--3--3--7-----5-----3-----|--0--0----0--0--0--0--0--|
--------------------------|--------------------------|-------------------------|
--------------------------|--------------------------|-------------------------|

                                                                            
-------------------------|-------------------------|---------------------|
-------------------------|-------------------------|---------------------|
------2--5-----2--5r-----|-----2----2--5-----2--5--|-----2--5-----2--5b--|
---0--0--0--0--0--0------|--0--0----0--0--0--0--0--|--0--0--0--0--0--0---|
-------------------------|-------------------------|---------------------|
-------------------------|-------------------------|---------------------|

                                                                                
OUTRO (x4)

-----------------------|--------------------------|--------------------------|
-----------------------|--------------------------|--------------------------|
--8--8--8--7--7--7--5--|--5--5--------------------|--7--7--7--5--5--5--3--3--|
--5--5--5--5--5--5--5--|--5--5--8--8--7--7--5--5--|--3--3--3--3--3--3--3--3--|
--5--5--5--5--5--5--5--|--5--5--5--5--5--5--5--5--|--3--3--3--3--3--3--3--3--|
-----------------------|--------------------------|--------------------------|

                                                                             
--------------------------|-------------------------|---------------------|
--------------------------|-------------------------|---------------------|
--3-----------------------|-----2----2--5-----2--5--|-----2--5-----2--5r--|
--3--7--7--5--5--3--3--3--|--0--0----0--0--0--0--0--|--0--0--0--0--0--0---|
--3--3--3--3--3--3--3--3--|-------------------------|---------------------|
--------------------------|-------------------------|---------------------|

                                                                             
-------------------------|------------------------|
-------------------------|------------------------|
-----2----2--5-----2--5--|-----2--5-----2--5r-----|
--0--0----0--0--0--0--0--|--0--0--0--0--0--0------|
-------------------------|------------------------|
-------------------------|------------------------|

Suggest correction
Creating personal tab
Creating personal tab
You can edit any tab online and save it as your Personal.

You can edit, replace or remove any tab part or add personal notes – all changes will be seen only by you.

Personal tabs can be accessed anytime from any device, even offline.
Learn more »
comments
print report bad tab
2 comments total.
0 reply
BTrz 188 May 14, 2008 08:33 AM

Not bad but the bridge goes like that:

-----------------------|-----------------------|-----------------------|
--4--4----4--4----4----|--3--3----3--3----3----|--6--6----6--6----6----|
--5--5----5--5----5----|--3--3----3--3----3----|--7--7----7--7----7----|
--5--5----5--5----5----|--3--3----3--3----3----|--7--7----7--7----7----|
--3--3----3--3----3----|--1--1----1--1----1----|--5--5----5--5----5----|
-----------------------|-----------------------|-----------------------|

-----------------------|
-----------------------|
--0--0----0--0----0----|
--1--1----1--1----1----|
--1--1----1--1----1----|
--1--1----1--1----1----|

0 reply
amahmud 137 May 23, 2015 12:42 PM

Clearly wrong. is this guy for real? it is CLEARLY WRONG, i mean look at the verse! I've never seen anything like this

guest
You may want to rate the tab now too:
select rating
Wanna post a correction for this tab? Suggest correction