Oops, an error
Loading. Please wait.

Rabbit Down The Hole Bass Tab

version 1
version 1

Whole song

Interactive

19 views 1 this week
2 commentsread comments
1 2 3 4 5
2 more votes to show rating
add to favorites
launch autoscroll
font size
0
reset
guitar tuner
Autoscroll
slow
fast
+/-
esc
set tempo
stop
Help us to improve Ultimate-Guitar.com Take our survey!
×
Author
Difficulty
Tuning
novice
D A D G B E
BILLY TALENT - RABBIT DOWN THE HOLE


[Intro]

G|---------------------------------------------------------------------------|
D|---------------------------------------------------------------------------|
A|-5----3----8--10\--7---12--3--1----3----5----7-7-8---0--1----3--3--3-------|
D|---------------------------------------------------------------------------|



[Verse]
                                                                    (3x)
G|---------------------------------------------------------------------------|
D|---------------------------------------------------------------------------|
A|-5---0--5-5----3---0--3-3---------------------------0--0--0-3--------------|
D|-----------------------------3--3--3--3--3-3--2--2-------------------------|



[Pre-Chorus]

G|-------------------------------------------------------------------------|
D|-------------2-3-2------------2-3-2------------------2--2--3-------------|
A|-1--1--1--1--------3--3--3--3-------5--5--5--5--5-5------------0---------|
D|-------------------------------------------------------------------------|


G|-----------------------------------|
D|-------------2-3-2-----------------|
A|-1--1--1--1--------3--3--3---------|
D|-----------------------------------|



[Chorus]
                                                                                  (2x)
G|---------------------5-2------------------------------------------------------------------------|
D|-------------------------5-3--------------------------------------------------------------------|
A|-3-5-------3-5----------------------------------------------------------------------------------|
D|-----0--0------0--0----------5-7--7----10-7-5-0-3-5--5----3-5b-5-3-0---0-0--0-0--0-0--0-0--0----|



[Verse]
                                                                    (3x)
G|---------------------------------------------------------------------------|
D|---------------------------------------------------------------------------|
A|-5---0--5-5----3---0--3-3---------------------------0--0--0-3--------------|
D|-----------------------------3--3--3--3--3-3--2--2-------------------------|



[Pre-Chorus]

G|-------------------------------------------------------------------------|
D|-------------2-3-2------------2-3-2------------------2--2--3-------------|
A|-1--1--1--1--------3--3--3--3-------5--5--5--5--5-5------------0---------|
D|-------------------------------------------------------------------------|


G|-----------------------------------|
D|-------------2-3-2-----------------|
A|-1--1--1--1--------3--3--3---------|
D|-----------------------------------|



[Chorus]
                                                                                  (2x)
G|---------------------5-2------------------------------------------------------------------------|
D|-------------------------5-3--------------------------------------------------------------------|
A|-3-5-------3-5----------------------------------------------------------------------------------|
D|-----0--0------0--0----------5-7--7----10-7-5-0-3-5--5----3-5b-5-3-0---0-0--0-0--0-0--0-0--0----|


G|--------------------------|
D|--------------------------|
A|--------------------------|
D|-0-0--0-0--0-0--0-0--0----|


[Solo]
                                                                                  (2x)
G|---------------------5-2------------------------------------------------------------------------|
D|-------------------------5-3--------------------------------------------------------------------|
A|-3-5-------3-5----------------------------------------------------------------------------------|
D|-----0--0------0--0----------5-7--7----10-7-5-0-3-5--5----3-5b-5-3-0---0-0--0-0--0-0--0-0--0----|


[Pre-Chorus]

G|-------------------------------------------------------------------------|
D|-------------2-3-2------------2-3-2------------------2--2--3-------------|
A|-1--1--1--1--------3--3--3--3-------5--5--5--5--5-5------------0---------|
D|-------------------------------------------------------------------------|


G|-----------------------------------|
D|-------------2-3-2-----------------|
A|-1--1--1--1--------3--3--3---------|
D|-----------------------------------|



[Chorus]
                                                                                  (2x)
G|---------------------5-2------------------------------------------------------------------------|
D|-------------------------5-3--------------------------------------------------------------------|
A|-3-5-------3-5----------------------------------------------------------------------------------|
D|-----0--0------0--0----------5-7--7----10-7-5-0-3-5--5----3-5b-5-3-0---0-0--0-0--0-0--0-0--0----|



[Outro]
                                                                                  (2x)
G|---------------------5-2------------------------------------------------------------------------|
D|-------------------------5-3--------------------------------------------------------------------|
A|-3-5-------3-5----------------------------------------------------------------------------------|
D|-----0--0------0--0----------5-7--7----10-7-5-0-3-5--5----3-5b-5-3-0---0-0--0-0--0-0--0-0--0----|


                                                  
G|-----------------------------------------------------------|
D|-----------------------------------------------------------|
A|-----------------------------0-0-0--0--0-0-0--0-0-0-0-0----|
D|-0-0-0--0--0-0-0--0-0-0-0-0--------------------------------|
                                                                      (2x)
G|----------------------------------------------------------|
D|------------------------------3-3-3--3--3-3-3--3-3-3-3-3--|
A|----------------------------------------------------------|
D|--5-5-5--5--5-5-5--5-5-5-5-5------------------------------|


Have Fun
made by BILLYacbTALENT  (YouTube)
;)


************************************

| x   Dead note
| g   Grace note
| (n) Ghost note
| h   Hammer-on
| p   Pull-off
| r   Release
| >   Accented note
| t   Tapping
| b   Bend
| br  Bend release
| pb  Pre-bend
| pbr Pre-bend release
| /   Slide up
| \   Slide down
| ~   Vibrato
| s   Slap
| P   Pop
| PM  Palm mute
| TR  Trill
| N   Tremolo

************************************
Suggest correction
Give kudos to tab author, rate the tab!
1 2 3 4 5
comments
print report bad tab
2 comments total.
0 reply
markushein03 126 Nov 27, 2016 10:37 PM

,,Chase that rabbit down the hole bass tab!!!"

Thanks!!!

+1 reply
MichaelBILLY 517 Nov 28, 2016 10:52 AM

you´re welcome ;)

guest
You may want to rate the tab now too:
select rating
Wanna post a correction for this tab? Suggest correction