Oops, an error
Loading. Please wait.

Rabbit Down The Hole tab

version 2
version 2

Whole song

Interactive

2,122 views 9 this week
no commentswrite comment
1 2 3 4 5
3 more votes to show rating
add to favorites
×
Save as Personal and add changes to this tab that will be seen only by you. Learn more ›
×
You can save this tab as Personal to edit and correct it or add notes. All changes will be seen only by you. Learn more »
launch autoscroll
font size
0
reset
how to read this tab
guitar tuner
edit
Autoscroll
slow
fast
+/-
esc
set tempo
stop
[Intro = Verse] 3x

e|-------0--1--3--1-0-----1--0--1---0-----------------------------------------------------|
B|----3---3--3--3--3-3-3---3--3--3---3-1-0----3-----3-----3-------3--------3----------3---|
G|-(2)-2----------------0---0--0--0--------2-----2-----2------0-------0----------0--------|
D|------0--0--0--0--------------------------0--0--0--0---0--0---0---0---2----2------2---2-|
A|-----------------------3------------------------------------------------0-----0---------|
D|-------------------------------------------3--3--3--3----------2---0--------------------|

[Pre-Chorus]

e|-------0--1--3--1-0-----1--0--1---0-1-0-------0--1--3--1-0-----------------------------|
B|----3---3--3--3--3-3-3---3--3--3--------3--3---3--3--3--3-3------3-----3-----3---------|
G|-----2----------------0---0--0--0-----------2----------------2------2-----2------------|
D|------0--0--0--0-----------------------------0--0--0--0-------0---0--0--0---0--0-------|
A|-----------------------3---------------------------------------------------------------|
D|----------------------------------------------------------------3--3--3--3-------------|


e|------0--1--3--1-0-----1-----0---------------------------------------------------------|
B|---3---3--3--3--3-3-3---3----3---------------------------------------------------------|
G|----2----------------0---0---2---------------------------------------------------------|
D|-----0--0--0--0------------------------------------------------------------------------|
A|----------------------3------3---------------------------------------------------------|
E|---------------------------------------------------------------------------------------|

[Verse] 3x

e|-------0--1--3--1-0-----1--0--1---0----------------------------------------------------|
B|----3---3--3--3--3-3-3---3--3--3---3-1-0----3-----3-----3------3-------3----------3----|
G|-(2)-2----------------0---0--0--0--------2-----2-----2------0------0----------0--------|
D|------0--0--0--0--------------------------0--0--0--0---0--0--0--0---2----2------2---2--|
A|-----------------------3---------------------------------------------0-----0-----------|
D|-------------------------------------------3--3--3--3---------2--0---------------------|

[Pre-Chorus]

e|-------0--1--3--1-0-----1--0--1---0-1-0-------0--1--3--1-0-----------------------------|
B|----3---3--3--3--3-3-3---3--3--3--------3--3---3--3--3--3-3------3-----3-----3---------|
G|-----2----------------0---0--0--0-----------2----------------2------2-----2------------|
D|------0--0--0--0-----------------------------0--0--0--0-------0---0--0--0---0--0-------|
A|-----------------------3---------------------------------------------------------------|
D|----------------------------------------------------------------3--3--3--3-------------|


e|------0--1--3--1-0-----1-----0---------------------------------------------------------|
B|---3---3--3--3--3-3-3---3----3---------------------------------------------------------|
G|----2----------------0---0---2---------------------------------------------------------|
D|-----0--0--0--0------------------------------------------------------------------------|
A|----------------------3------3---------------------------------------------------------|
E|---------------------------------------------------------------------------------------|

[Chorus] 2x

e|----------------------------------------------------------------------------------------------------------|
B|----------------------------------------------------------------------------------------------------------|
G|---------------------5-7-5--------------------------------------------------------------------------------|
D|-----3---------------------7-5---5-7--7----10-7-5-0-3-5--5------------------------------------------------|
A|-3h5-0-5-3h5-3/5-5h8-------- --8-5-7--7----10-7-5-0-3-5--5------------8-----7-----8-----10-----12---15\---|
D|-0---0-0-0---0---0---------------5-7--7----10-7-5-0-3-5--5--3-5b-3-5-----0-0---0-0---0-0----0-0----0------|

[Verse] 3x

e|-------0--1--3--1-0-----1--0--1---0----------------------------------------------------|
B|----3---3--3--3--3-3-3---3--3--3---3-1-0----3-----3-----3------3-------3----------3----|
G|-(2)-2----------------0---0--0--0--------2-----2-----2------0------0----------0--------|
D|------0--0--0--0--------------------------0--0--0--0---0--0--0--0---2----2------2---2--|
A|-----------------------3---------------------------------------------0-----0-----------|
D|-------------------------------------------3--3--3--3---------2--0---------------------|

[Pre-Chorus]

e|-------0--1--3--1-0-----1--0--1---0-1-0-------0--1--3--1-0-----------------------------|
B|----3---3--3--3--3-3-3---3--3--3--------3--3---3--3--3--3-3------3-----3-----3---------|
G|-----2----------------0---0--0--0-----------2----------------2------2-----2------------|
D|------0--0--0--0-----------------------------0--0--0--0-------0---0--0--0---0--0-------|
A|-----------------------3---------------------------------------------------------------|
D|----------------------------------------------------------------3--3--3--3-------------|


e|------0--1--3--1-0-----1-----0---------------------------------------------------------|
B|---3---3--3--3--3-3-3---3----3---------------------------------------------------------|
G|----2----------------0---0---2---------------------------------------------------------|
D|-----0--0--0--0------------------------------------------------------------------------|
A|----------------------3------3---------------------------------------------------------|
E|---------------------------------------------------------------------------------------|

[Chorus] 2x

e|----------------------------------------------------------------------------------------------------------|
B|----------------------------------------------------------------------------------------------------------|
G|---------------------5-7-5--------------------------------------------------------------------------------|
D|-----3---------------------7-5---5-7--7----10-7-5-0-3-5--5------------------------------------------------|
A|-3h5-0-5-3h5-3/5-5h8-------- --8-5-7--7----10-7-5-0-3-5--5------------8-----7-----8-----10-----12---15\---|
D|-0---0-0-0---0---0---------------5-7--7----10-7-5-0-3-5--5--3-5b-3-5-----0-0---0-0---0-0----0-0----0------|

[Pre-Solo]

e|-----------------------------------------|
B|-----------------------------------------|
G|-----------------------------------------|
D|-----------------------------------------|
A|--8-----7-----8-----10-----12---15\------|
D|----0-0---0-0---0-0----0-0----0----------|

[Solo]

e|--------10------------------------14b-13------------------------------------|
B|-10--10----10---13b----13b----------------10h13p10--8h10p8--6h8p6--3h6p6--1-|
G|-12------------------------14-12--------------------------------------------|
D|----------------------------------------------------------------------------|
A|----------------------------------------------------------------------------|
D|----------------------------------------------------------------------------|

e|----------------------------------------------------------------------------|
B|----------------------------------------------------------------------------|
G|--------12-10------------12-10--10-----10-10-10----10-10-10----10-10-10-----|
D|-10-12--12-10--12-10-12--12-10-----12--10-10-10-12-10-10-10-12-10-10-10-12\-|
A|----------------------------------------------------------------------------|
D|----------------------------------------------------------------------------|

e|--------------------------------------------------------------------------------|
B|-------------------------13--------------------------------------13-------------|
G|-------9---10---12---12b~--12b--10-------------9---10---12---12b~--12b--10------|
D|-12-12---0----0----0--------------12-10--12-12---0----0----0---------------12-10|
A|--------------------------------------------------------------------------------|
D|--------------------------------------------------------------------------------|

e|--------------------------------------12b-10----10-----------------------10-|
B|--------------------------13-----------------13----13-10-10--------------10-|
G|--------9---10---12---12b~--12b--10----------------------12b-12-10----10----|
D|--12-12---0----0----0--------------12------------------------------12-------|
A|----------------------------------------------------------------------------|
D|----------------------------------------------------------------------------|

[Chorus (play while Solo)] 2x

e|----------------------------------------------------------------------------------------------------------|
B|----------------------------------------------------------------------------------------------------------|
G|---------------------5-7-5--------------------------------------------------------------------------------|
D|-----3---------------------7-5---5-7--7----10-7-5-0-3-5--5------------------------------------------------|
A|-3h5-0-5-3h5-3/5-5h8-------- --8-5-7--7----10-7-5-0-3-5--5------------8-----7-----8-----10-----12---15\---|
D|-0---0-0-0---0---0---------------5-7--7----10-7-5-0-3-5--5--3-5b-3-5-----0-0---0-0---0-0----0-0----0------|

[Pre-Chorus]

e|-------0--1--3--1-0-----1--0--1---0-1-0-------0--1--3--1-0-----------------------------|
B|----3---3--3--3--3-3-3---3--3--3--------3--3---3--3--3--3-3------3-----3-----3---------|
G|-----2----------------0---0--0--0-----------2----------------2------2-----2------------|
D|------0--0--0--0-----------------------------0--0--0--0-------0---0--0--0---0--0-------|
A|-----------------------3---------------------------------------------------------------|
D|----------------------------------------------------------------3--3--3--3-------------|


e|------0--1--3--1-0-----1-----0---------------------------------------------------------|
B|---3---3--3--3--3-3-3---3----3---------------------------------------------------------|
G|----2----------------0---0---2---------------------------------------------------------|
D|-----0--0--0--0------------------------------------------------------------------------|
A|----------------------3------3---------------------------------------------------------|
E|---------------------------------------------------------------------------------------|

[Chorus (play till the end)]

e|----------------------------------------------------------------------------------------------------------|
B|----------------------------------------------------------------------------------------------------------|
G|---------------------5-7-5--------------------------------------------------------------------------------|
D|-----3---------------------7-5---5-7--7----10-7-5-0-3-5--5------------------------------------------------|
A|-3h5-0-5-3h5-3/5-5h8-------- --8-5-7--7----10-7-5-0-3-5--5------------8-----7-----8-----10-----12---15\---|
D|-0---0-0-0---0---0---------------5-7--7----10-7-5-0-3-5--5--3-5b-3-5-----0-0---0-0---0-0----0-0----0------|

************************************

| x   Dead note
| g   Grace note
| (n) Ghost note
| h   Hammer-on
| p   Pull-off
| r   Release
| >   Accented note
| t   Tapping
| b   Bend
| br  Bend release
| pb  Pre-bend
| pbr Pre-bend release
| /   Slide up
| \   Slide down
| ~   Vibrato
| s   Slap
| P   Pop
| PM  Palm mute
| TR  Trill
| N   Tremolo

************************************

            
            
Suggest correction
Creating personal tab
Creating personal tab
You can edit any tab online and save it as your Personal.

You can edit, replace or remove any tab part or add personal notes – all changes will be seen only by you.

Personal tabs can be accessed anytime from any device, even offline.
Learn more »
Give kudos to tab author, rate the tab!
1 2 3 4 5
comments
print report bad tab
guest
You may want to rate the tab now too:
select rating
Wanna post a correction for this tab? Suggest correction