Oops, an error
Loading. Please wait.

Red Flag Bass Tab

version 1
version 1
19,834 views 12 this week
4 commentsread comments
1 2 3 4 5
accurate
x 5
add to favorites
launch autoscroll
font size
0
reset
guitar tuner
Autoscroll
slow
fast
+/-
esc
set tempo
stop
Help us to improve Ultimate-Guitar.com Take our survey!
×
Contributor
Difficulty
Tuning
temp144 1,110
intermediate
D A D G B E
Artist: Billy Talent
Song: Red Flag
Tuning: Drop-D

This is the new Billy Talent song from myspace. My Tab sounds correct,
even close to perfect, so just rate it. This is just a demo song, so
the album version may be changed but it's pretty good. Sounds like
the lovechild of Line& Sinker and Voices of Violence, anyway Long
Live Taborama! and Enjoy!

Intro/Chorus x1
G|----------------------------------------------------------------|
D|----------------------------------------------------------------|
A|-0-0-0-0-3-03-03---------------3-3-3-3--------------------------|
D|----------------5-5-5-5-3-03-03-------5-35-35--2-2-2-2-64-64-6--|

Verse(Part A) x1
G|-----------------------------------------|
D|------------------------2222-------------|
A|-0000--2222--0000--2222------------------|
D|-----------------------------22----------|

Part B x2
G|---------------------------------------------|
D|---------------------------------------------|
A|--0000-3-3-3-3-3--2222-----------------------|
D|-----------------------2-2-2-2-2-------------|

Pre-Chorus x2        Play 1st Time  Play 2nd Time
G|--------------------------------|----------------------------------|
D|--------------------------------|----------------------------------|
A|--------5(ring)-----------------|----------------------------------|
D|-3(ring)-------555-555-7(ring)--|-3(ring)-0(ring)-555-555-2(ring)--|

Chorus x2
Verse x4 (Play Part B Only)
Pre-Chorus x2
Chorus x2

Bridge x4 Part A
G|----------------------------------------|
D|----------------------------------------|
A|-00-00000----------55-55555-------------|
D|----------55-55555-----------33-3333----|

Part B: Play x2                          Play After 2nd time
G|---------------------------------------|-------------------|
D|---------------------------------------|---7-5-------------|
A|-00000000------------------------------|-8-----7-5-7-5-3-0-|
D|---------55555555500000000033333333333-|-------------------|

Drum Solo (Wait for at least 10 seconds.)
Chorus x3

Ending
G|------------------------------------|
D|------------------------------------|
A|-0-0-0-0----------------------------|
D|------------------------------------|
comments
print report bad tab
4 comments total. Showing first comments.
0 reply
A_GOOD_TABBER 248 wrote on June 4 2006, 12:56 pm

that part at the very ending of the bridge is wrong but the rest is right, so good tabbing

0 reply
stumaster18 1,574 wrote on June 25 2006, 11:21 pm

the intro is a tad off, but it was easy to figure out on my own. thanks for gettong me started.

0 reply
nicklopeke 136 wrote on September 24 2006, 12:14 pm

use www.slownotes.com to slow down the song without changing pitch if you want to tab is correctly :)

I want to post or [tab]
guest
You may want to rate the tab now too:
select rating
Please do not post tabs as comments. Select "correction" instead!