Oops, an error
Loading. Please wait.
We have an official Red Flag tab made by UG professional guitarists. Check out the tab »
×
110,297 views 9 this week
18 commentsread comments
1 2 3 4 5
x 15
add to favorites
×
Save as Personal and add changes to this tab that will be seen only by you. Learn more ›
×
You can save this tab as Personal to edit and correct it or add notes. All changes will be seen only by you. Learn more »
launch autoscroll
font size
0
reset
how to read this tab
guitar tuner
edit
Autoscroll
slow
fast
+/-
esc
set tempo
stop
Author
Intro Played once intro just with drums and vocals

e|------------------------------------------------------------------|
B|------------------------------------------------------------------|
G|------------------------------------------------------------------|
D|-2222222-5555555-------------------5555555------------------------|
A|-0000000-3030303--5555555--3333333-3333333-5555555-222222-5555555-|
E|------------------3333333--1010101---------3030303-000000-3030303-|


[Verse]

e|--7777--9999--7777-9999-10101010--555----------| 1,s not 10's
B|--7777--9999--7777-9999-10101010--555----------|
G|-----------------------------------------------|
D|-----------------------------------------------|
A|-----------------------------------------------|
E|-----------------------------------------------|

e|---77779999555777799/1010557777999955577779999-|
B|---77779999555777799/1010557777999955577779999-|
G|-----------------------------------------------|
D|-----------------------------------------------|
A|-----------------------------------------------|
E|-----------------------------------------------|


[Pre-Chorus]

e|-5------7---777999--5-----7--3-777999-5-*------------|
B|-5------7---777999--5-----7--3-777999-5--------------|
G|-5------7-----------5-----7--3--------5--------------|
D|-7------8-----------7-----5--5--------7--------------|
A|-----------------------------------------------------|
E|-----------------------------------------------------|


[Chorus]

e|------------------------------------------------------------------|
B|------------------------------------------------------------------|
G|------------------------------------------------------------------|
D|-2222222-5555555-------------------5555555------------------------|
A|-0000000-3030303--5555555--3333333-3333333-5555555-222222-5555555-|
E|------------------3333333--1010101---------3030303-000000-3030303-|

e|------------------------------------------------------------------|
B|------------------------------------------------------------------|
G|------------------------------------------------------------------|
D|-2222222-5555555-------------------5555555------------------------|
A|-0000000-3030303--5555555--3333333-3333333-5555555-222222-5555555-|
E|------------------3333333--1010101---------3030303-000000-3030303-|


[Verse]

e|---77779999555777799/1010557777999955577779999-555-|
B|---77779999555777799/1010557777999955577779999-555-|
G|---------------------------------------------------|
D|---------------------------------------------------|
A|---------------------------------------------------|
E|---------------------------------------------------|

e|---77779999555777799/1010557777999955577779999-555-|
B|---77779999555777799/1010557777999955577779999-555-|
G|---------------------------------------------------|
D|---------------------------------------------------|
A|---------------------------------------------------|
E|---------------------------------------------------|


[Pre-Chorus]

e|-5------7---777999--5-----7--3-777999-5-*------------|
B|-5------7---777999--5-----7--3-777999-5--------------|
G|-5------7-----------5-----7--3--------5--------------|
D|-7------8-----------7-----5--5--------7--------------|
A|-----------------------------------------------------|
E|-----------------------------------------------------|


[Chorus]

e|------------------------------------------------------------------|
B|------------------------------------------------------------------|
G|------------------------------------------------------------------|
D|-2222222-5555555-------------------5555555------------------------|
A|-0000000-3030303--5555555--3333333-3333333-5555555-222222-5555555-|
E|------------------3333333--1010101---------3030303-000000-3030303-|

e|------------------------------------------------------------------|
B|------------------------------------------------------------------|
G|------------------------------------------------------------------|
D|-2222222-5555555-------------------5555555------------------------|
A|-0000000-3030303--5555555--3333333-3333333-5555555-222222-5555555-|
E|------------------3333333--1010101---------3030303-000000-3030303-|


[Guitar Interlude]

e|---------------------------------------------------|
B|---------------------------------------------------|
G|--55-55555-77-77777--99-9-9-9-9-9--1111-1111111111-| 11's not 1's
D|--55-77777-77-99999--99-1111111111-1111-1313131313-|
A|---------------------------------------------------|
E|---------------------------------------------------|

e|---------------------------------------------------|
B|---------------------------------------------------|
G|--55-55555-77-77777--99-9-9-9-9-9--1111-1111111111-| 11's not 1's
D|--55-77777-77-99999--99-1111111111-1111-1313131313-|
A|---------------------------------------------------|
E|---------------------------------------------------|

e|---------------------------------------------------|
B|---------------------------------------------------|
G|--55-55555-77-77777--99-9-9-9-9-9--1111-1111111111-| 11's not 1's
D|--55-77777-77-99999--99-1111111111-1111-1313131313-|
A|---------------------------------------------------|
E|---------------------------------------------------|

e|---------------------------------------------------|
B|---------------------------------------------------|
G|--55-55555-77-77777--99-9-9-9-9-9--1111-1111111111-| 11's not 1's
D|--55-77777-77-99999--99-1111111111-1111-1313131313-|
A|---------------------------------------------------|
E|---------------------------------------------------|

e|---555555-777777-999999-111111111111-333333-555-|
B|---555555-777777-999999-111111111111-333333-555-|
G|---555555-777777-999999-111111111111-333333-555-|11,s not 1,s
D|------------------------------------------------|
A|------------------------------------------------|
E|------------------------------------------------|

e|---555555-777777-999999-111111111111-333333-555-|
B|---555555-777777-999999-111111111111-333333-555-|
G|---555555-777777-999999-111111111111-333333-555-|11,s not 1,s
D|------------------------------------------------|
A|------------------------------------------------|
E|------------------------------------------------|


[Drum Fill]

e|------------------------------------------------------------------|
B|------------------------------------------------------------------|
G|------------------------------------------------------------------|
D|-2222222-5555555-------------------5555555------------------------|
A|-0000000-3030303--5555555--3333333-3333333-5555555-222222-5555555-|
E|------------------3333333--1010101---------3030303-000000-3030303-|

e|------------------------------------------------------------------|
B|------------------------------------------------------------------|
G|------------------------------------------------------------------|
D|-2222222-5555555-------------------5555555------------------------|
A|-0000000-3030303--5555555--3333333-3333333-5555555-222222-5555555-|
E|------------------3333333--1010101---------3030303-000000-3030303-|



************************************

| /  Slide up
| *  Natural harmonic

************************************

            
            
Suggest correction
Creating personal tab
Creating personal tab
You can edit any tab online and save it as your Personal.

You can edit, replace or remove any tab part or add personal notes – all changes will be seen only by you.

Personal tabs can be accessed anytime from any device, even offline.
Learn more »
comments
print report bad tab
18 comments total. Showing first comments.
-1 reply
AC/DC10 30 Sep 15, 2005 08:00 PM

wut cd is this song from?

-1 reply
noname_666_ 10 Oct 11, 2005 07:14 AM

It's not on any of their CD's yet, it's a demo, but you can get it on the "Black by Popular Demand" CD, i got it from the Warped Tour..

-1 reply
deathfromabove1 10 Nov 02, 2005 07:26 PM

It's from their upcoming new CD, to be released in "early 2006", according to http://www.myspace.com/billytalent. It's available to stream from that website too.

guest
You may want to rate the tab now too:
select rating
Wanna post a correction for this tab? Suggest correction