Oops, an error
Loading. Please wait.

Red Flag Bass Tab

version 2
version 2
2,717 views 1 this week
1 commentread comment
1 2 3 4 5
accurate
x 3
add to favorites
launch autoscroll
font size
0
reset
guitar tuner
Autoscroll
slow
fast
+/-
esc
set tempo
stop
Help us to improve Ultimate-Guitar.com Take our survey!
×
Author
Difficulty
intermediate
Intro/Chorus  0:13

G|-------------------------------------------------------------------------------------------------|
D|-------------------------------------------------------------------------------------------------|
A|---4-4-4-----4-2-4-2-44-2-2-2-2-2-2-4-2-0--------------------------------------------------------|
E|---------4-7------------------------------2-0-2--4-4-4-4-4-5--2-0-2-0-2--1-1-1-1-1-1-4-0-4-0-4---|

Verse

G|------------------------------------------------------------|
D|-----------------------------------------------2-2-2-2------|
A|---0-0-0-0-----2-2-2-2-----0-0-0-0-----2-2-2-2--------------|
E|------------------------------------------------------0-0---|

G|---------------------------------------------------------|
D|-----------------------------------------------2222------|
A|---0000-3333333-2222---------0000-3333333-2222-----------|
E|---------------------0000000------------------------00---|

Pre Chorus

G|-----------------------------------------------|
D|-----------------------------------------------|
A|--------4----000002-5---------4----0000002-4---|
E|---2---------------------2---------------------|

Chorus X 2

G|-------------------------------------------------------------------------------------------------|
D|-------------------------------------------------------------------------------------------------|
A|---4-4-4-----4-2-4-2-44-2-2-2-2-2-2-4-2-0--------------------------------------------------------|
E|---------4-7------------------------------2-0-2--4-4-4-4-4-5--2-0-2-0-2--1-1-1-1-1-1-4-0-4-0-4---|

Verse X 2

G|---------------------------------------------------------|
D|-----------------------------------------------2222------|
A|---0000-3333333-2222---------0000-3333333-2222-----------|
E|---------------------0000000------------------------00---|

Pre Chorus

G|-----------------------------------------------|
D|-----------------------------------------------|
A|--------4----000002-5---------4----0000002-4---|
E|---2---------------------2---------------------|

Chorus X 2

G|-------------------------------------------------------------------------------------------------|
D|-------------------------------------------------------------------------------------------------|
A|---4-4-4-----4-2-4-2-44-2-2-2-2-2-2-4-2-0--------------------------------------------------------|
E|---------4-7------------------------------2-0-2--4-4-4-4-4-5--2-0-2-0-2--1-1-1-1-1-1-4-0-4-0-4---|

Pause Until 2:13

Bridge X 4

G|---------------------------------------|
D|---------------------------------------|
A|----2222222-0000000-5555555-88888888---|
E|---------------------------------------|

G|------------------------------------------------|
D|------------------------------7-10-7-9-7--------|
A|----2222222-0000000-5555555-8-----------9-7-----|
E|--------------------------------------------5---|

Pause Until 2:52

Chorus X 2

G|-------------------------------------------------------------------------------------------------|
D|-------------------------------------------------------------------------------------------------|
A|---4-4-4-----4-2-4-2-44-2-2-2-2-2-2-4-2-0--------------------------------------------------------|
E|---------4-7------------------------------2-0-2--4-4-4-4-4-5--2-0-2-0-2--1-1-1-1-1-1-4-0-4-0-4---|





End With

G|----------|
D|----------|
A|---0000---|
E|----------|
Suggest correction
What's this?
You can suggest a correction to this tab. Community and Mods will review your correction and vote to approve or reject it.
comments
We did not receive enough feedback on this tab! Please rate:
print report bad tab
1 2 3 4 5
1 comment total.
0 reply
Abong 410 wrote on May 8 2007, 07:52 am

Even though I haven't tried your tab yet, most of Billy Talent's songs are in drop D so I'm not too sure you're going to have it right...

guest
You may want to rate the tab now too:
select rating
Please do not post tabs as comments. Select "correction" instead!