Oops, an error
Loading. Please wait.

Red Flag Bass Tab

version 3
version 3

Whole song

2,396 views 1 this week
1 commentread comment
1 2 3 4 5
worth learning
x 5
add to favorites
launch autoscroll
font size
0
reset
guitar tuner
Tab Pro tools
  • play this tab
  • loop segment
  • change instrument
  • show fretboard
  • metronome
×
Best way to learn
"Red Flag"
Autoscroll
slow
fast
+/-
esc
set tempo
stop
Contributor
Difficulty
Tuning
novice
D A D G B E
Red Flag - Billy Talent
Tabbed By: Sammy Sabby
Tuning: Drop D, DADG

INTRO:
G|-------------------------------------------------|
D|-------------------------------------------------|
A|-------3-333-------------3-333-------------------|
D|-7-777-------5-555-3-333-------5-555-2-222-6-666-|

VERSE 1:
G|------------------------------|
D|------------------------------|
A|---------------------77777----|
D|-7777-9999-7777-9999-------66-|

G|-----------------------------------------||
D|-----------------------------------------||
A|------------------------------777777-7-7-||
D|-7777/101010101010-10-10-9999------------||

G|-----------------------------------|
D|-----------------------------------|
A|----5~---------------5~---------7~-|
D|-7~----5555555-2~–7~----5555555----|

CHORUS:
G|-------------------------------------------------||
D|-------------------------------------------------||
A|-------3-333-------------3-333-------------------||
D|-7-777-------5-555-3-333-------5-555-2-222-6-666-||

VERSE 2:
G|-----------------------------------------|
D|-----------------------------------------|
A|------------------------------777777-7-7-|
D|-7777/101010101010-10-10-9999------------| x4

G|-----------------------------------|
D|-----------------------------------|
A|----5~---------------5~---------7~-|
D|-7~----5555555-2~–7~----5555555----|

[CHORUS]

G|-----|
D|-----|
A|-----|
D|-7-7-|

G|-----------------------------------------|
D|-----------------------------------------|
A|---------------------5-5-55555-----------|
D|-7-7-77777-5-5-55555-----------3-3-33333-| x4

G|-----------------------------------------| |-----|
D|-----------------------------------------| |-----|
A|---------------------5-5-55555------8757-| |-----|
D|-7-7-77777-5-5-55555-----------33-3------| |-7-7-|

OUTRO:
G|-------------------------------------------------|
D|-------------------------------------------------|
A|-------3-333-------------3-333-------------------|
D|-7-777-------5-555-3-333-------5-555-2-222-6-666-| x5

G|---------|
D|---------|
A|---------|
D|-7-7-7-7-|
comments
print report bad tab
1 comment total.
0 reply
matosh.lee wrote on April 30 2008, 05:20 pm

you didnt even follow the easiest notes. its 3 0 . not continus 3's

I want to post or [tab]
guest
You may want to rate the tab now too:
select rating
Please do not post tabs as comments. Select "correction" instead!