Oops, an error
Loading. Please wait.

Red Flag Bass Tab

version 4
version 4
24,753 views 57 this week
4 commentsread comments
1 2 3 4 5
x 26
add to favorites
launch autoscroll
font size
0
reset
guitar tuner
Autoscroll
slow
fast
+/-
esc
set tempo
stop
Help us to improve Ultimate-Guitar.com Take our survey!
×
Author
Song: Red Flag
Artist: Billy Talent
Album: Billy Talent II

This song is quite straightforward and doesn’t need much explanation. The notes are all 
according to the timing of the song. If you want to print this tab, use the font Courier 
size 9, and each line of tab will be completely on one page. Enjoy!


[CHORUS 1]   (0:  )

G|----------------|----------------|----------------|----------------|
D|----------------|----------------|----------------|----------------|
A|0---0-0-0-0-0-0-|3---0-3---0-3-0-|----------------|----------------|
D|----------------|----------------|5---5-5-5-5-5-5-|3---0-3---0-3-0-|

G|----------------|----------------|----------------|----------------|
D|----------------|----------------|----------------|----------------|
A|3---3-3-3-3-3-3-|----------------|----------------|----------------|
D|----------------|5---0-5---0-5-0-|2---2-2-2-2-2-2-|6---0-6---0-6-0-|


[VERSE 1]   ( :  )

G|----------------|----------------|----------------|----------------|
D|----------------|----------------|----------------|----------------|
A|0-0-0-0---------|----------------|2-2-2-2---------|----------------|
D|----------------|----------------|----------------|----------------|

G|----------------|----------------|----------------|----------------|
D|----------------|----------------|------------2-2-|2-2-2-----------|
A|0-0-0-0---------|----------------|2-2-2-2---------|----------------|
D|----------------|----------------|----------------|--------2---2---|


[VERSE 2]   ( :  )

G|----------------|----------------|----------------|----------------|
D|----------------|----------------|----------------|----------------|
A|0-0-0-0---0-3-3-|3-3-3---3---3---|2-2-2-2---2-----|----------------|
D|----------------|----------------|------------2-2-|2-2-2---2---2---|

G|----------------|----------------|----------------|----------------|
D|----------------|----------------|------------2-2-|2-2-2---2---2---|
A|0-0-0-0---0-3-3-|3-3-3---3---3---|2-2-2-2---2-----|----------------|
D|----------------|----------------|----------------|----------------|


[PRE-CHORUS 1]   ( :  )

G|----------------|----------------|----------------|----------------|
D|----------------|----------------|----------------|----------------|
A|----------------|5---------------|----------------|----------------|
D|3---------------|----------------|5-5-5-5-5-5-5---|7---------------|

G|----------------|----------------|----------------|----------------|
D|----------------|----------------|----------------|----------------|
A|----------------|----------------|----------------|----------------|
D|3---------------|0---------------|5-5-5-5-5-5-5---|2---------------|


[CHORUS 2]   ( :  )  -> Play chorus 1 twice

[VERSE 3]   ( :  )  -> Play verse 2 BUT replace last bar with this:

G|----------------|
D|2-2-2-----------|
A|----------------|
D|--------2---2---|

[VERSE 4]   ( :  )  -> Play verse 2

[PRE-CHORUS ]  ( :  )  -> Play pre-chorus 1

[CHORUS 3]   ( :  )  -> Play chorus 1 twice


[INTERLUDE]

G|----------------|----------------|----------------|----------------|
D|----------------|----------------|----------------|----------------|
A|0-0-------------|----------------|----------------|----------------|
D|----------------|----------------|----------------|----------------|


G|----------------|----------------|----------------|----------------|
D|----------------|----------------|----------------|----------------|
A|0-0---0-0-0-0-0-|----------------|5-5---5-5-5-5-5-|----------------|
D|----------------|5-5---5-5-5-5-5-|----------------|3-3---3-3-3-3-3-|

G|----------------|----------------|----------------|----------------|
D|----------------|----------------|----------------|3-3---3-3-3-3-3-|
A|0-0---0-0-0-0-0-|----------------|5-5---5-5-5-5-5-|----------------|
D|----------------|5-5---5-5-5-5-5-|----------------|----------------|

G|----------------|----------------|----------------|----------------|
D|----------------|----------------|----------------|----------------|
A|0-0---0-0-0-0-0-|----------------|----------------|----------------|
D|----------------|5-5---5-5-5-5-5-|0-0---0-0-0-0-0-|3-3---3-3-3-3-5-|


G|----------------|----------------|----------------|----------------|
D|----------------|----------------|----------------|3-3-3-3-3-3-3-3-|
A|0-0-0-0-0-0-0-0-|----------------|5-5-5-5-5-5-5-5-|----------------|
D|----------------|5-5-5-5-5-5-5-5-|----------------|----------------|

G|----------------|----------------|----------------|--2-------------|
D|----------------|----------------|----------------|3---5-3-2-------|
A|0-0---0-0-0-0-0-|----------------|5-5---5-5-5-5-5-|----------5-0---|
D|----------------|5-5---5-5-5-5-5-|----------------|--------------5-|


[OUTRO CHORUS]   ( :  )

G|----------------|
D|----------------|
A|0---------------|
E|----------------|

Rest 9 bars

Play chorus 1 twice.

G|----------------|
D|----------------|
A|0-0-0-0---------|
D|----------------|    -3:

That’s it. Any comments, questions, suggestions or corrections would be appreciated.
Suggest correction
comments
print report bad tab
4 comments total. Showing first comments.
+2 reply
KILO6 10 Aug 21, 2009 06:39 PM

nice tab it sounded really good to me, no mistakes that i could hear. im really suprised like no one else has rated or commented on it. watevs nice job!

+1 reply
Craig-Bass1995 177 Aug 22, 2009 02:30 PM

This Is A Really Good Tab. I Could Hear Nothing Wrong With It.

+1 reply
Serethis 30 Oct 15, 2009 02:36 PM

Sounds pretty damn accurate to me.

guest
You may want to rate the tab now too:
select rating
Wanna post a correction for this tab? Suggest correction