Oops, an error
Loading. Please wait.

River Below Bass Tab

version 4
version 4
423 views 1 this week
2 commentsread comments
1 2 3 4 5
please rate
add to favorites
launch autoscroll
font size
0
reset
guitar tuner
Tab Pro tools
  • play this tab
  • loop segment
  • change instrument
  • show fretboard
  • metronome
Autoscroll
slow
fast
+/-
esc
set tempo
stop
Contributor
Difficulty
intermediate
    Ok this is my first tab and i still can't believe how long it has
taken for people to figure this one out.  I listen to billytalent all
the time so I know this is almost spot on. This is the real order of
the song from start to finish.

G----------------------------------------------------------------------|
D----------------------------------------------------------------------|
A--------------------------33333333------------------------------------|
D--5-555-500000000--5-555-5--------------------------------------------|

 ----------------------------------------------------------------------|x2
 ----------------------------------------------------------------------|
 ------------3-----------3-------------1-111111-33333333---------------|
 --5-5-5-000---5-5-5-000---5-5-5-333-3---------------------------------|

 ----------------------------------------------------------------------|
 ----------------------------------------------------------------------|
 --3----3-6--5-3-1---1-5--3-1-3---3-6--5-3-1---1-----------------------|
 -----5------------3------------5------------3---0---------------------|

 ----------------------------------------------------------------------|x2
 ----------------------------------------------------------------------|
 -----------------------------1111111-3-3-3-3--------------------------|
 --5555555--0000000--1111111------------------5-5-5-5-0-0-0-0-1-1-1-1--|

 ----------------------------------------------------------------------|
 ----------------------------------------------------------------------|
 --------------------------33333333------------------------------------|
 --5-555-500000000--5-555-5--------------------------------------------|

 ----------------------------------------------------------------------|x2
 ----------------------------------------------------------------------|
 ------------3-----------3-------------1-111111-33333333---------------|
 --5-5-5-000---5-5-5-000---5-5-5-333-3---------------------------------|

 ----------------------------------------------------------------------|
 ----------------------------------------------------------------------|
 --3----3-6--5-3-1---1-5-3-1-3---3-6--5-3-1---1------------------------|
 -----5------------3-----------5------------3---0----------------------|

 ----------------------------------------------------------------------|x2
 ----------------------------------------------------------------------|
 -----------------------------1111111-3-3-3-3--------------------------|
 --5555555--0000000--1111111------------------5-5-5-5-0-0-0-0-1-1-1-1--|

 ----------------------------------------------------------------------|
 ----------------------------------------------------------------------|
 --3-3-3-3-------------------------------------------------------------|
 ----------5-5-5-5-0-0-0-0-1-1-1-1-------------------------------------|

 ----------------------------------------------------------------------|
 ----------------------------------------------------------------------|
 ------------------------------------------*---------------------------|
 --5-555-50---5-555-50---5-555-50---5-555-50---------------------------|

 ----------------------------------------------------------------------|x2
 ----------------------------------------------------------------------|
 ----------------------------1111111-3-3-3-3---------------------------|
 -5555555--0000000--1111111------------------5-5-5-5-0-0-0-0-1-1-1-1---|

 ----------------------------------------------------------------------|x3
 ----------------------------------------------------------------------|
 --3-3-3-3-------------------------------------------------------------|
 ----------5-5-5-5-0-0-0-0-1-1-1-1-------------------------------------|

 ----------------------------------------------------------------------|
 ----------------------------------------------------------------------|
 ----------------------------------------------------------------------|
 --5-555-500000000-----------------------------------------------------|
comments
We did not receive enough feedback on this tab! Please rate:
print report bad tab
1 2 3 4 5
2 comments total.
0 reply
A_GOOD_TABBER wrote on November 13 2006, 09:08 pm

The end of the intro and the end of the verse is wrong, besides thats, its alright...

0 reply
billytalentdude wrote on November 14 2006, 08:09 pm

Your right the end of the intro should be 00000000, but the end of
the verse is right.

I want to post or [tab]
guest
You may want to rate the tab now too:
select rating
Please do not post tabs as comments. Select "correction" instead!