Oops, an error
Loading. Please wait.

River Below Bass Tab

version 5
version 5
830 views 15 this week
no commentswrite comment
1 2 3 4 5
x 4
add to favorites
launch autoscroll
font size
0
reset
guitar tuner
×
Best way to learn
"River Below"
Autoscroll
slow
fast
+/-
esc
set tempo
stop
Author
Tuning
-------------------------------------------------------------------------------
                             River Below - Billy Talent
-------------------------------------------------------------------------------
Tabbed by: Cheyenne21
E-mail: cheyenne2346@hotmail.com

Tuning: Drop D

I've seen many tabs of this song that I never thought was completely right, so I made one that I think is 100%
correct! Hope you enjoy it and keep rocking!

Intro:
G|--------------------------------------------|
D|--------------------------------------------|
A|--------------------------------------------|
D|-5-5-5-5-5-0000000-5-5-5-5-5-0000000--------|

Verse:
("Rejected, since day one....")
G|---------------------------------------------------------------------------|
D|---------------------------------------------------------------------------|  x2
A|----------3-----------3----------------111111111--555555555----------------|
D|-5-5-5-000---5-5-5-000---5-5-5-3-3-3-3-------------------------------------|

Pre-chorus:
("I'm sick and I'm twisted....")
G|--------------------------------------------------------------|
D|--------------------------------------------------------------|
A|-3-3---3-6-6-5-3-1-1---1-----5-4-3-3---3-6-6-5-3-1-1---1------|
D|-----5---------------3---0-0---------5---------------3---0----|

Chorus:
("Into the river below....")
G|---------------------------------------------------------------------------|
D|---------------------------------------------------------------------------|  x2
A|----------------------------11111111-3-3-3-3-------------------------------|
D|-55555555-00000000-11111111------------------5-5-5-5-0-0-0-0-1-1-1-1-------|

Interlude:
G|--------------------------------------------|
D|--------------------------------------------|
A|--------------------------------------------|
D|-5-5-5-5-5-0000000-5-5-5-5-5-0000000--------|

Verse 2:
("Contraption, made up of....")
G|---------------------------------------------------------------------------|
D|---------------------------------------------------------------------------|  x2
A|----------3-----------3----------------111111111--555555555----------------|
D|-5-5-5-000---5-5-5-000---5-5-5-3-3-3-3-------------------------------------|

Pre-chorus:
("I'm sick and I'm twisted....")
G|--------------------------------------------------------------|
D|--------------------------------------------------------------|
A|-3-3---3-6-6-5-3-1-1---1-----5-4-3-3---3-6-6-5-3-1-1---1------|
D|-----5---------------3---0-0---------5---------------3---0----|

Chorus:
("Into the river below....")
G|----------------------------------------------------------------------------|
D|----------------------------------------------------------------------------|
A|----------------------------11111111--3-3-3-3-------------------------------|
D|-55555555-00000000-11111111------------------5-5-5-5-0-0-0-0-1-1-1-1--------|

G|-------------------------------------|--------------------------------------|
D|-------------------------------------|--------------------------------------|  x2
A|----------------------------11111111-|-3-3-3-3------------------------------|
D|-55555555-00000000-11111111----------|--------5-5-5-5-0-0-0-0-1-1-1-1-------|

Interlude 2:
("Into the river below!") 
G|-----------------------------------------------------------------|
D|-----------------------------------------------------------------|
A|-----------------------------------------------------------------|
D|-5-5-5-5-5-0~---5-5-5-5-5-0~---5-5-5-5-5-0~---5-5-5-5-5---000000-|
--
Chorus:
("Into the river below....")
G|----------------------------------------------------------------------------|
D|----------------------------------------------------------------------------|
A|----------------------------11111111--3-3-3-3-------------------------------|
D|-55555555-00000000-11111111------------------5-5-5-5-0-0-0-0-1-1-1-1--------|

G|-------------------------------------|--------------------------------------|
D|-------------------------------------|--------------------------------------|  x4
A|----------------------------11111111-|-3-3-3-3------------------------------|
D|-55555555-00000000-11111111----------|--------5-5-5-5-0-0-0-0-1-1-1-1-------|

Outro:
G|--------------------|
D|--------------------|
A|--------------------|
D|-5-5-5-5-5-0000000--|

| /  slide up
| \  slide down
| h  hammer-on
| p  pull-off
| ~  vibrato
| +  harmonic
| x  Mute note
===============================================================================
Suggest correction
comments
print report bad tab
guest
You may want to rate the tab now too:
select rating
Wanna post a correction for this tab? Suggest correction