Oops, an error
Loading. Please wait.

River Below Bass Tab

version 5
version 5
3,545 views 3 this week
2 commentsread comments
1 2 3 4 5
accurate
x 7
add to favorites
launch autoscroll
font size
0
reset
guitar tuner
Autoscroll
slow
fast
+/-
esc
set tempo
stop
Help us to improve Ultimate-Guitar.com Take our survey!
×
Author
Tuning
D A D G B E
------------------------------------------------------------------------------
			                   RIVER BELOW- Billy Talent
------------------------------------------------------------------------------

Tabbed By : A_GOOD_TABBER (Neil)
Tuning:Drop D

Everybody’s tab is pretty wrong in some way; the tunning, the intro, certain parts are missing
Here is the full, accurate, complete River below bass and guitar tab. I heard them live and
the bass was overpowering the guitar so I definitely had a chance to really hear Jon play.
he was great. So ya, I'm positive this is right. Now, here's the tab...

The bass is lined up perfectly with the guitar. So if you play guitar. It will help you
out the bass tab and it's timing.

Intro
G|----------------------------------|------------------------------------|
D|----------------------------------|------------------------------------|
A|----------------------------------|------------------------------------|
D|-55---5---5---5---0-0-0-0-0-0-0-0-|-55---5---5---5---0-0-0-0-0-0-0-0---|

E|----------------------------------|------------------------------------|
B|----------------------------------|------------------------------------|
G|--------7---------8-7-5-----------|--------7---------8-7-5-------------|
D|-55-8-5---5-8-5---0~----8-7-5-----|-55-8-5---5-8-5---0-----8-7-5-------|
A|-55---5---5---5---0~----------8-6-|-55---5---5---5---0-----------8-6---|
E|-55---5---5---5---0~--------------|-55---5---5---5---0-----------------|

Verse
G|------------------|------------------|---------------------------------|
D|------------------|------------------|---------------------------------|
A|----------------3-|----------------3-|---------------------------------|
E|--5-5-5---00-0----|--5-5-5---00-0----|--5-5-5--3333333-----------------|

E|----------------3-|----------------3-|---------------------------------|
B|----------------4-|----------------4-|---------------------------------|
G|----7--------5--5-|----7--------5--5-|----7----------------------------|
D|--8-5-8---78----5-|--8-5-8---78----5-|--8-5-8--3333333-----------------|
A|--5-5-5---00----3-|--5-5-5---00----3-|--5-5-5--3333333-----------------|
E|--5-5-5---00------|--5-5-5---00------|--5-5-5--3333333-----------------|
  “rejected...since day one...”			“So many times I’ve...”

G|-----------------------------------------------------------------------|
D|-----------------------------------------------------------------------|
A|-1-1-1-1--5-5-5-5------------------------------------------------------|
E|-----------------------------------------------------------------------|

|--1-1-1-1--2-2-2-2------------------------------------------------------|
|--3-3-3-3--1-1-1-1------------------------------------------------------|
|--3-3-3-3--2-2-2-2------------------------------------------------------|
|--3-3-3-3--0-0-0-0------------------------------------------------------|
|--1-1-1-1--0-0-0-0------------------------------------------------------|
|-----------0-0-0-0------------------------------------------------------|
   “Lost....Count...”
Pre-Chorus
G|--------------------------------------------------------------------------|
D|--------------------------------------------------------------------------|
A|-3------3--6--5-3--1-----1----5--4--3----3--6-5--3--1--1------------------|
E|------5---------------3-----00--------5---------------3--0~---------------|

E|---------------------------------------------------------2~------------|
B|------5-------8-------3-------7-------5-------8-------3--1~------------|
G|------5-------8-------3-------7-------5-------8-------3--2~------------|
D|----5-------8-------3--------7-------5-------8-------3---0~------------|
A|--3------3/6-----6\1------1/5-----5\3-----3/6-----6\1--1-0~------------|
E|---------------------------------------------------------0~------------|
  “I’m sick and, I’m twisted...”

Chorus
G|-----------------------------------------------------------------------|
D|-----------------------------------------------------------------------|
A|-----------------------------1111111-----------------------------------|
E|--5555555--0000000--1111111--------------------------------------------|

E|-----------------------------1111111-----------------------------------|
B|-----------------------------3333333-----------------------------------|
G|-----------------------------3333333-----------------------------------|
D|--5555555--0000000--1111111--3333333-----------------------------------|
A|--5555555--0000000--1111111--1111111-----------------------------------|
E|--5555555--0000000--1111111--------------------------------------------|
   “Into the river below...”

G|-----------------------------------------------------------------------|
D|-----------------------------------------------------------------------|
A|-3-3-3-3---------------------------------------------------------------|
E|---------5-5-5-5-0-0-0-0-1-1-1-1---------------------------------------|

E|-3-3-3-3---------------------------------------------------------------|
B|-4-4-4-4---------------------------------------------------------------|
G|-5-5-5-5---------------------------------------------------------------|
D|-5-5-5-5-5-5-5-5-0-0-0-0-1-1-1-1---------------------------------------|
A|-3-3-3-3-5-5-5-5-0-0-0-0-1-1-1-1---------------------------------------|
E|---------5-5-5-5-0-0-0-0-1-1-1-1---------------------------------------|
  “They’ll think I’m insane, But ya’ll all know my name...”

Bridge
G|------------------------|----------------------------------------------|
D|------------------------|----------------------------------------------|
A|----------------------x3|----------------------------------------------|
E|-55---5---5---5---0~----|-55---5---5---5-0---00000---------------------|

E|------------------------|--------------------22222----------------------|
B|------------------------|--------------------11111----------------------|
G|--------7---------2~----|--------7-------2---22222----------------------|
D|-55-8-5---5-8-5---0~--x3|-55-8-5---5-8-5-0---00000----------------------|
A|-55---5---5---5---0~----|-55---5---5---5-0---00000----------------------|
E|-55---5---5---5---0~----|-55---5---5---5-0---00000----------------------|
               “INTO THE RIVER BELOW!”
Outro
G|----------------------------------|
D|----------------------------------|
A|----------------------------------|
E|-55---5---5---5---0-0-0-0-0-0-0-0-|

E|----------------------------------|
B|----------------------------------|
G|--------7---------8-7-5-----------|
D|-55-8-5---5-8-5---0~----8-7-5-----|
A|-55---5---5---5---0~----------8-6-|
E|-55---5---5---5---0~--------------|

That’s all. The order is easy. 
Intro
Verse
Prechorus
Chorus
Intro
Verse
Prechorus
Chorus
Bridge
Chorus
Outro

P.S. Billy Talent is great band live and I recommend you see them in concert at any chance
you get. :)

| /  slide up
| \  slide down
| ~  Let the note ring
=============================================================
Suggest correction new What's this?
You can suggest a correction to this tab. Community and Mods will review your correction and vote to approve or reject it.
comments
print report bad tab
2 comments total.
0 reply
Signar 12 wrote on January 6 2008, 12:32 pm

Great tab, just a little frustrating with the guitar and bass tabs mixed together, but that has it's good sides too. :)
Best tab i've ever seen so far :)

0 reply
theboarder 558 wrote on June 27 2009, 07:00 am

agree :)

guest
You may want to rate the tab now too:
select rating
Please do not post tabs as comments. Select "correction" instead!